Song name
# A B C D E F G H I J K L M N O P Q R S T U V W X Y Z

Red Light Ambition - Tell Me This tab

Red Light Ambition- Tell Me This
tabbed by: Ryan Bisson

TELL ME THIS

INTRO/PRE-VERSE
e----X-----|
b----X-----|
g----9-----| 8x's just 4 counts listen to learn the strumming it's not hard
d----9-----|
a----8-----|
E----X-----|


VERSE
e---x------------|
b---x------------|
g---14-12-10-10--|
d---14-12-10-10--|
a---12-10--8-8---|
E---x------------|

CHORUS
e----x---x---x---x-----|
b----x---x---x---x-----|
g----10--9---10--9-----|
d----10--10--10--10----|
a----8---8---8---8-----|
E----x---x---x---x-----|

it seemed like a fairly easy song to tab, Just listen to the song to get teh strummnig, 
easy though so you'll get it! This is my first but i'm pretty sure its right. If you 
any questions or comments email me at simplyslik@msn.com otherwise. Enjoy
Tap to rate this tab
 
# A B C D E F G H I J K L M N O P Q R S T U V W X Y Z