Song name
# A B C D E F G H I J K L M N O P Q R S T U V W X Y Z

Red Light Riot - City Street Lights tab

h -hammer on
p -pull off
. -Mute
+ -harmonics
~ -Ring out
b -bend up
/ -slide

E-----------------------------------        E-------------------------|
B--9-10---77/-5----9-10---7-5-3-----        B-----------7-------------|
G--9-9----88/-6----9-9----8-6-4-----        G---57--57----------------|
D--9-9----99/-7----9-9----9-7-5-----  X4    D-----7---7---------------|
A--7-7-------------7-7--------------        A-------------------5/-7--|
E---x--xxx----------x--xxx----------        E-------------------3/-5--|
                                                +++ +++ +


E-----------------------------------|
B--9-10---77/-5----9-10---7-5-3-----|
G--9-9----88/-6----9-9----8-6-4-----|
D--9-9----99/-7----9-9----9-7-5-----|  X2
A--7-7-------------7-7--------------|
E---x--xxx----------x--xxx----------|


E-----------------|
B-----------------|
G-----------------|
D-----------------|
A--5--5555--------|
E--3--3333--------|

*Solo*

e-------12--------12---12--------------------------------|
B----12--------12----12---14p12-14p12-14p12-14p12--------|
G14b-------14b-------------------------------------------|
D--------------------------------------------------------|
A--------------------------------------------------------|
E--------------------------------------------------------|


E----------------------------------------------------------|
B---------------------15------20~~~---20B~-20B~-20B~-20B~--|
G------12----12-14-12--------------------------------------|
D14-14----14-----------------------------------------------|
A----------------------------------------------------------|
E----------------------------------------------------------|


e12-----------------------------------------------------------------------|
B---15p12----12----12-----------------------------------------------------|
G---------14----14----14-12-14Hp12----12----------------------------------|
D----------------------------------14----14p12-14p12----12----------------|
A----------------------------------------------------14----14p12-14p12p10-|
E-------------------------------------------------------------------------|


E15--15-15------------17b-17b-17b-17b-17b-17b--|
B------------17-15-17--------------------------|
G----------------------------------------------|
D----------------------------------------------|
A----------------------------------------------|
E----------------------------------------------|

E--------------------------------------------------------------12----12-|
B--------------------------------------------12----12-15p12-15-12-15----|
G--------------------------12----12-14p12-14----14----------------------|
D-------12----12-14p12-h14-12-14----------------------------------------|
A-14-14----14-----------------------------------------------------------|
E-----------------------------------------------------------------------|


E--------------------------------------------------------------------------|
B--15p12----12----12-------------------------------------------------------|
G----------14----14----14-12-14Hp12----12----------------------------------|
D-----------------------------------14----14p12-14p12----12----------------|
A-----------------------------------------------------14----14p12-14p12p10-|
E--------------------------------------------------------------------------|


*Chorus*

E-----------------------------------|
B--9-10---77/-5----9-10---7-5-3-----|
G--9-9----88/-6----9-9----8-6-4-----|
D--9-9----99/-7----9-9----9-7-5-----|  X2
A--7-7-------------7-7--------------|
E---x--xxx----------x--xxx----------|


E-------------------------------------|
B-----------------------------------7-|
G---------------------------57--57----|
D-----------------------------7---7---|
A-2-2-2-2-2-2-2-2-2-2-2-2-------------|
E-0-0-0-0-0-0-0-0-0-0-0-0-------------|
  . . . . . . . . . . . .   +++ +++ +


E-----------------------------------|
B--9-10---77/-5----9-10---7-5-3-----|
G--9-9----88/-6----9-9----8-6-4-----|
D--9-9----99/-7----9-9----9-7-5-----|  X2
A--7-7-------------7-7--------------|
E---x--xxx----------x--xxx----------|

*Bass Solo*

*Short guitar solo*

E--------------------------------------------------------------12----12-|
B--------------------------------------------12----12-15p12-15-12-15----|
G--------------------------12----12-14p12-14----14----------------------|
D-------12----12-14p12-h14-12-14----------------------------------------|
A-14-14----14-----------------------------------------------------------|
E-----------------------------------------------------------------------|


E--------------------------------------------------------------------------|
B--15p12----12----12-------------------------------------------------------|
G----------14----14----14-12-14Hp12----12----------------------------------|
D-----------------------------------14----14p12-14p12----12----------------|
A-----------------------------------------------------14----14p12-14p12p10-|
E--------------------------------------------------------------------------|


E--------------------------------------------------|
B---------------------------------7----------------|
G-------------------------57--57------0~~~---------|
D---------------------------7---7-----2~~~---------|
A-2-2-2-2-2-2-2-2-2-2-2---------------2~~~---------|
E-0-0-0-0-0-0-0-0-0-0-0----------------------------|
  . . . . . . . . . . .   +++ +++ +
Tap to rate this tab
 
# A B C D E F G H I J K L M N O P Q R S T U V W X Y Z