Song name
# A B C D E F G H I J K L M N O P Q R S T U V W X Y Z

Red Light Riot - I Found The Way tab

. - Mute
^ - bend
~ - ring out/ hold
p - pull off
h - hammer on

E--------------------------------------------------------------------------|
B--------------------------------------------------------------------------|
G--------------------------------------------------------------------------|
D--------------------------------------------------------------------------|
A-7-7-7-7-7-7-7-7-7-7-7-7-7-7-7-7-7-7-7-7-7-7-7-7-7-7-7-7-7-7-7-7-7-7-7-7--|
E-5-5-5-5-5-5-5-5-5-5-5-5-5-5-5-5-5-5-5-5-5-5-5-5-5-5-5-5-5-5-5-5-5-5-5-5--|
  . . . . . . . . . . . . . . . . . . . . . . . . . . . . . . . . . . . .

E--------------------------------------------------------------------------|
B--------------------------------------------------------------------------|
G--------------------------------------------------------------------------|
D--------------------------------------------------------------------------|
A-7-7-7-7-7-7-7-7-7-7-7-7-7-7-7-7-7-7-7-7-7-7-7-7-7-7-7-7-7-7-7-7-7-7-7-7~~|
E-5-5-5-5-5-5-5-5-5-5-5-5-5-5-5-5-5-5-5-5-5-5-5-5-5-5-5-5-5-5-5-5-5-5-5-5~~|
    . .   . . . .   . .   . . . .   . .   . . . .   . .   . . . .   . .


E------------------------------------------|
B------------------------------------------|
G------------------------------------------|  X4
D------------------------------------------|
E-7-7-7-7-9-9-9-9-5-5-5-5-12-12-12-12------|
A-5-5-5-5-7-7-7-7-3-3-3-3-10-10-10-10------|

*Solo*

Guitar 2
E------------------------------------------|
B------------------------------------------|
G------------------------------------------|  repeats whole time
D------------------------------------------|
E-7-7-7-7-9-9-9-9-5-5-5-5-12-12-12-12------|
A-5-5-5-5-7-7-7-7-3-3-3-3-10-10-10-10------|


Gutar 1
E---------------------------------------------------|
B---------------9-9-9-------------------------------|
G--------------9-9-9-----9-99-9p-7---9999p7--999999-|
D-----------7^~~~--------7-77-7--7------------------|
A---77-7-99-----------------------------------------|
E---------------------------------------------------|

E-------------------------------------------------------|
B-10-------------10---8h10p8----------------------------|
G-12b14-10-9-----------------10p9-------10-9h10p9-------|
D------------8-8----8-------------10h12-----------12p10-|
A-------------------------------------------------------|
E-------------------------------------------------------|


E---12h13p12p10----------------------17-15h17p15----------20-17h18p17-------|
B---------------13p12p10----------10-------------17h18-18-------------20p18-|
G------------------------12-10-12-------------------------------------------|
D-10------------------------------------------------------------------------|
A---------------------------------------------------------------------------|
E---------------------------------------------------------------------------|

E------------------------------------------------------------------------|
B-20-(pick 8 times)-21-(pick 8 times)------------------------------------|
G------------------------------------------------------------------------|
D------------------------------------------------------------------------|
A------------------------------------------------------------------------|
E------------------------------------------------------------------------|

E-17h18p17-------------20-20b~~~~----------------------------|
B----------20-18-17------------------------------------------|
G-------------------19---------------------------------------|
D------------------------------------------------------------|
A------------------------------------------------------------|
E------------------------------------------------------------|


E------------------------------------------|
B------------------------------------------|
G------------------------------------------|  X6
D------------------------------------------|
E-7-7-7-7-9-9-9-9-5-5-5-5-12-12-12-12------|
A-5-5-5-5-7-7-7-7-3-3-3-3-10-10-10-10------|
Tap to rate this tab
# A B C D E F G H I J K L M N O P Q R S T U V W X Y Z