Song name
# A B C D E F G H I J K L M N O P Q R S T U V W X Y Z

Red Light Riot - Guilty Man tab

D------------------------------------|
B--7-7-x-7-x-x---7-7-x-7-x-x---------|
G--7-7-x-7-x-x---7-7-x-7-x-x---------| X12
D------------------------------------|
A-0-------------0--------------------|
D-0-------------0--------------------|


D--------------------------------------------|
B-77-xx-55-xx-3-3-3-3--3-3--3-3-3-3--3-3-----|
G-77-xx-55-xx-2-2-2-2--2-2--2-2-2-2--2-2-----|
D--------------------------------------------|
A--------------------------------------------|
D--------------------------------------------|


D------------------------------------|
B--7-7-x-7-x-x---7-7-x-7-x-x---------|
G--7-7-x-7-x-x---7-7-x-7-x-x---------| X12
D------------------------------------|
A-0-------------0--------------------|
D-0-------------0--------------------|

D------------------------------------------------------------------------|
B-77-xx-55-xx-3-3-3-3--3-3--3-3-3-3--3-3--3-3-3-3--3-3--3-3-3-3-3--------|
G-77-xx-55-xx-2-2-2-2--2-2--2-2-2-2--2-2--2-2-2-2--2-2--2-2-2-2-2--------|
D------------------------------------------------------------------------|
A------------------------------------------------------------------------|
D------------------------------------------------------------------------|

D------------------------------------|
B--7-7-x-7-x-x---7-7-x-7-x-x---------|
G--7-7-x-7-x-x---7-7-x-7-x-x---------| X12
D------------------------------------|
A-0-------------0--------------------|
D-0-------------0--------------------|


D--------------------------------------------|
B-77-xx-55-xx-3-3-3-3--3-3--3-3-3-3--3-3-----|
G-77-xx-55-xx-2-2-2-2--2-2--2-2-2-2--2-2-----|
D--------------------------------------------|
A--------------------------------------------|
D--------------------------------------------|

*Solo*

D------------------------------------------------------------------------|
B------------------------------------------------------------------------|
G------------------------------------------------------------------------|
D12-12--10-10-9-9-9-9-9-9-7-7-7-7-7-7-9-9-9-7-7-7-7-7-7-7-7-9-9-9--------|
A-0--0---0--0-0-0-0-0-0-0------------------------------------------------|
D------------------------------------------------------------------------|


D------------------------------------------------------------------------|
B------------------------------------------------------------------------|
G------------------------------------------------------------------------|
D-7-7-7-7-7-7-7-9-9-9-7-7-7-7-7-7-7-5-5-5-5-7-7-7-7-9-9-9-9-10-10-10-10--|
A------------------------------------------------------------------------|
D------------------------------------------------------------------------|


D------------------------------------------------------------------------|
B------------------------------------------------------------------------|
G------------------------------------------------------------------------|
D-12-12-12-12-14-14-15-15-15-15-15-15-15-15-15-15-14-14-12-12-12-12------|
A--0--0--0--0--0--0--0--0--0--0--0--0--0--0--0--0--0--0--0--0--0--0------|
D------------------------------------------------------------------------|


D------------------------------------------------------------------------|
B------------------------------------------------------------------------|
G---------------------9-9-9-9-9-9-10-10-10-10-12-12-12-12----------------|
D-10-10-10-10-9-9-9-9-0-0-0-0-0-0-0-0-0-0-0-0--0--0--0--0----------------|
A--0--0--0--0-0-0-0-0----------------------------------------------------|
D------------------------------------------------------------------------|


D------------------------------------------------------------------------|
B------------------------------------------------------------------------|
G-14-14-14-14-15-14-15-14-15-14-15-15-14-15-15-15-15-18-18-18-18~~~------|
D--0--0--0--0--0--0--0--0--0--0--0--0--0--0--0--0--0--0--0--0--0~~~------|
A------------------------------------------------------------------------|
D------------------------------------------------------------------------|
Tap to rate this tab
 
# A B C D E F G H I J K L M N O P Q R S T U V W X Y Z