Song name
# A B C D E F G H I J K L M N O P Q R S T U V W X Y Z

Red Light Riot - Confused In The Brain tab

Help us improve GuitareTab! Take a short survey!
                               INTRO

      INTRO is played with Wah Pedal

E-----------------------------------------------------------------------|
B-----------------------------------------------------------------------|
G-7/9--7/9p7----------4-3---7/9--7/9p7---7/9--7/9--0--0--0--0--0--2-0---|
D------------7/9\7-5--5-4--------------------------7--9--7--5--3--3-0---|
A-----------------------------------------------------------------------|
E-----------------------------------------------------------------------|

              INTRO                            CHORUS
E--------------------------------|--------------------------------|
B--7/9--7h9p7h9p7h9p7--7/9-7/9p7-|---12--12--10--10-7-7--9--9-----|
G--------------------------------|-12--12--12--12--9-9-11-11------|
D--------------------------------|--------------------------------|
A--------------------------------|--------------------------------|
E--------------------------------|--------------------------------|


           Main played X4                          X2
E--5-5-5-5--3-3-3-3--5-5-5-5--3-3-3-3---|----------------------|--------|
B--6-6-6-6--5-5-5-5--7-7-7-7--4-4-4-4---|---6-6-6-6---4-4/-6---|--6-6---|
G--7-7-7-7--5-5-5-5--7-7-7-7--5-5-5-5---|---7-7-7-7---5-5/-7---|--7-7---|
D--7-7-7-7--3-3-3-3--5-5-5-5--5-5-5-5---|---7-7-7-7---5-5/-7---|--7-7---|
A---------------------------------------|---5-5-5-5---3-3/-5---|--5-5---|
E---------------------------------------|----------------------|--------|
                                            D U D U   D U  D      D U

SOLO
e-----------------------15-12-----------------------------------------|
B--15----14----12------------15-12---------------------------0-0-3----|
G--17b19-16b18-14b16--------------15-14-12---12-11-9--9-7-6--6-4-4----|
D---------------------------------------------------------------------|
A---------------------------------------------------------------------|
E---------------------------------------------------------------------|

E----------------------------------------------------------------|
B------15-12-----15p12-----------------------15-----15p12--------|
G-----------14-12-----14-12-14-12-14-12-14b16--14b16-----14-12---|
D----------------------------------------------------------------|
A----------------------------------------------------------------|
E----------------------------------------------------------------|

E----------------------------15b16-15-15-14b15--12------15b16-12------|
B-15p12----------------------------------------14--12-12--------------|
G------14p12-----12--12-14-12-----------------------------------------|
D-----------14p12--14-------------------------------------------------|
A---------------------------------------------------------------------|
E---------------------------------------------------------------------|

E------------------------------------|-----------------------------------|
B-99----------------99--12--1414-----|-----------------------------------|
G-99--7--66---------99--12--1414-----|-----------------------------------|
D-99--7--77---------99--12--1414-(x2)|----------12-14-12--12-11-9--9-7-6-|
A-77--5--77---------77--10--1212-----|-----12-14-------------------------|
E-00-----55---------00---------------|12-14------------------------------|

E-------------------------------------------------------------------------|
B-------------------------------------------------------------------------|
G-0-0-0----12h14p12h14p12h14p12h14p12h14p12h14p12h14p12h14p12h14p12h14p12-|
D-5-3-2-------------------------------------------------------------------|
A-------------------------------------------------------------------------|
E-------------------------------------------------------------------------|

E---------------------------------------------15--15-12-------------|
B------12-13-14-15---15----14----12----10--------------15-12---12---|
G-12-14--------------17b19-16b18-14b16-12b14----------------14------|
D-------------------------------------------------------------------|
A-------------------------------------------------------------------|
E-------------------------------------------------------------------|

E------------------------------------------------------------------------|
B--------------------------------------99---------------99--12--1414-----|
G-12h14p12h14p12h14p12h14p12h14p12h14--99--7--66--------99--12--1414-----|
D--------------------------------------99--7--77--------99--12--1414(X2)-|
A--------------------------------------77--5--77--------77--10--1212-----|
E--------------------------------------00-----55--------00---------------|


           Main played X6                         X2
E--5-5-5-5--3-3-3-3--5-5-5-5--3-3-3-3---|----------------------|--------|
B--6-6-6-6--5-5-5-5--7-7-7-7--4-4-4-4---|---6-6-6-6---4-4/-6---|--6-6---|
G--7-7-7-7--5-5-5-5--7-7-7-7--5-5-5-5---|---7-7-7-7---5-5/-7---|--7-7---|
D--7-7-7-7--3-3-3-3--5-5-5-5--5-5-5-5---|---7-7-7-7---5-5/-7---|--7-7---|
A---------------------------------------|---5-5-5-5---3-3/-5---|--5-5---|
E---------------------------------------|----------------------|--------|
                                            D U D U   D U  D      D U
Related for Confused In The Brain tab