Song name
# A B C D E F G H I J K L M N O P Q R S T U V W X Y Z

Red Light Riot - Five Dollars tab

E-0--0--0--0--0-0-0-0-0-0-0-0-|
B-10-10-10-10-9-9-7-7-7-7-7-9-|
G-----------------------------|
D-----------------------------| X 6
A-----------------------------|
E-----------------------------|


E--------------------|---------------------------|
B--------------------|------7-8-9-10-9-7-----7---|
G---XXXX9~~--XXXX9~~-|-9-7-9-------------9-7--9--|
D---XXXX9~~--XXXX9~~-|---------------------------| X2
A---XXXX7~~--XXXX7~~-|---------------------------|
E--------------------|---------------------------|
Tap to rate this tab
# A B C D E F G H I J K L M N O P Q R S T U V W X Y Z