Red Line Chemistry - Vicious Cycles tab

-------------------------------------------------------------------------------
			     VICIOUS CYCLES - Red Line Chemistry
-------------------------------------------------------------------------------
Tabbed by: hessta
Email: tygehess@hotmail.com

http://www.redlinechemistry.com/

Tuning: Db

0:00
e|--------|    |------------------------------------|          |--------|
B|--------|    |o----------------------------------o|          |--------|
G|--------|    |------------------------------------|          |--------|
D|----0---|    |--7-5-10-7-5-2----------------------|          |--------|
A|----0---|    |o---------------7-5-8-5-10-5-(7)---o|          |--3--0--|
D|--5-----| x3 |----------------7-5-8-5-10-5-(7)----| x3       |--3--0--|
					     (*) 1&2           (*) 3

Intro/Riff A Guitar 1
1:00
e|----------------------------|
B|----------------------------|
G|----------------------------|
D|--2-2-----8-----7-----8-5~--|
A|--0-0-0h5---0h5---0h5-------|
D|----------------------------| x4


Intro/Riff A Guitar 2
1:00
e|-----------------------------------------------------------------------|
B|-----------------------------------------------------------------------|
G|-----------------------------------------------------------------------|
D|--7-7----7-7----7-7-x-8-8-x-7-7-x-8-8-5--7-7-x-8-8-x-7-7-x-8-8-5-7-7\--|
A|--7-7----7-7----7-7-x-8-8-x-7-7-x-8-8-5--7-7-x-8-8-x-7-7-x-8-8-5-7-7\--|
D|--7-7----7-7----7-7-0-8-8-0-7-7-0-8-8-5--7-7-0-8-8-0-7-7-0-8-8-5-7-7\--| x1


Base Guitar--


Verse
1:20
e|-------------|------------------------------|
B|-------------|o----------------------------o|
G|-------------|------------------------------|
D|--x-x-5\-1---|---7-7-5/8--5/7-7--5/8\7-5----|
A|--x-x-5\-1---|o----------------------------o|
D|--x-x-5\-1---|------------------------------| x2

1:32
e|---------------------------|
B|---------------------------|
G|---------------------------|
D|--7-7-x-8-8-x-7-7-x-8-8-5--|
A|--7-7-x-8-8-x-7-7-x-8-8-5--|
D|--7-7-x-8-8-x-7-7-x-8-8-5--| mixture of p.m.


Chorus
1:56
e|---------------------------------------------------|
B|------------------------------------------3--------|
G|------------------------------------------2--------|
D|--3----0----3----0--0-0-0-0-5-3----10-8-0----7--8--|
A|--3----0----3----0--0-0-0-0-5-3----10-8-0----7--8--|
D|--3----0----3----0--0-0-0-0-5-3----10-8-0----7--8--| x1
                      p.m....

Post-Chorus
2:20
e|----------------------------|
B|----------------------------|
G|----------------------------|
D|--0-0-x-1-1-x-0-0-x-1-1-10--|
A|--0-0-x-1-1-x-0-0-x-1-1-10--|
D|--0-0-x-1-1-x-0-0-x-1-1-10--| x2


Repeat Verse
Repeat Chorus


Bridge
3:11
e|----------------------------|
B|----------------------------|
G|----------------------------|
D|--0-0-----------------------|
A|--0-0-----6------5---6--3~--|
D|--0-0-0-3----0-3---0---0----|  x4

3:24
e|--------------------------------------|
B|--------------------------------------|
G|----------7------8-----8---5~--(16~)--|
D|--0-0-0-5----0-5---0-5---0------------|
A|--------------------------------------|
D|--------------------------------------|  x2

3:30
e|----------------------------|
B|----------------------------|
G|----------------------------|
D|--0-0-0-1-1-1-0-0-0-1-0-10--|
A|--0-0-0-1-1-1-0-0-0-1-0-10--|
D|--0-0-0-1-1-1-0-0-0-1-0-10--| xToo Many to Count


Verse Riff x2
Post Chorus x4 Under Solo
Verse Riff x4 Under Solo
Chorus
Post-Chorus
End
Tap to rate this tab
 
# A B C D E F G H I J K L M N O P Q R S T U V W X Y Z