Guitaretab - guitar tabs
Song name
# A B C D E F G H I J K L M N O P Q R S T U V W X Y Z

Red Noise - Furniture Music tab

-------------------------------------------------------------------------------
Furniture Music - Red Noise
-------------------------------------------------------------------------------

Tabbed by: axe victim

Email: Leave a message on my  ‘Ultimate Guitar’  profile or comment 
here and I’ll get back to you.

From the bands only album,  Sound on Sound  this was the first single.

Tuning: EADGBe

| /  slide up
| \  slide down
| h  hammer-on
| p  pull-off
| ~  vibrato
| +  harmonic
| x  Mute note


Intro: electric guitar with lots of fuzz...


___B5__________________Dadd2/B______B5__________________Dadd2/B____

e|--------------------------------|--------------------------------|
B|--------------------------------|--------------------------------|
G|---------------------7----------|---------------------7----------|
D|-9-------9-----------7----------|-9-------9-----------7----------|
A|-9-------9-----------7----------|-9-------9-----------7----------|
E|-7---7---7---7---7---7----------|-7---7---7---7---7---7----------|

 | 1 - & - 2 - & - 3 - & - 4 - & -| 1 - & - 2 - & - 3 - & - 4 - & -|

twice and then...


___A5__________________E/B__________A5__________________E/B________

e|--------------------------------|--------------------------------|
B|--------------------------------|--------------------------------|
G|---------------------9----------|---------------------9----------|
D|-7-------7-----------9----------|-7-------7-----------9----------|
A|-7-------7-----------7----------|-7-------7-----------7----------|
E|-5---5---5---5---5---5----------|-5---5---5---5---5---5----------|


twice and then...


Verse:


___B5__________________Dadd2/B______B5__________________Dadd2/B____
     " I   get so  tired   of  my   room... "
e|--------------------------------|--------------------------------|
B|--------------------------------|--------------------------------|
G|---------------------7----------|---------------------7----------|
D|-9-------9-----------7----------|-9-------9-----------7----------|
A|-9-------9-----------7----------|-9-------9-----------7----------|
E|-7---7---7---7---7---7----------|-7---7---7---7---7---7----------|


___B5__________________Dadd2/B______B5__________________Dadd2/B____
     " it makes the same sounds every day... "
e|--------------------------------|--------------------------------|
B|--------------------------------|--------------------------------|
G|---------------------7----------|---------------------7----------|
D|-9-------9-----------7----------|-9-------9-----------7----------|
A|-9-------9-----------7----------|-9-------9-----------7----------|
E|-7---7---7---7---7---7----------|-7---7---7---7---7---7----------|


___A5__________________E/B__________A5__________________E/B________
     " sometimes I move my things  around... "
e|--------------------------------|--------------------------------|
B|--------------------------------|--------------------------------|
G|---------------------9----------|---------------------9----------|
D|-7-------7-----------9----------|-7-------7-----------9----------|
A|-7-------7-----------7----------|-7-------7-----------7----------|
E|-5---5---5---5---5---5----------|-5---5---5---5---5---5----------|

[ Tab from: http://www.guitaretab.com/r/red-noise/186013.html ]
___A5__________________E/B__________A5__________________E/B________
      " it helps eliminate the  boredom... "
e|--------------------------------|--------------------------------|
B|--------------------------------|--------------------------------|
G|---------------------9----------|---------------------9----------|
D|-7-------7-----------9----------|-7-------7-----------9----------|
A|-7-------7-----------7----------|-7-------7-----------7----------|
E|-5---5---5---5---5---5----------|-5---5---5---5---5---5----------|


Chorus:


___F5__________________A5___________E5__________________D5_________
                                 "  furniture music... 
                       I make       furniture music...
                       I like       furniture music... "
e|--------------------------------|--------------------------------|
B|--------------------------------|---------------------3----------|
G|---------------------2----------|---------------------2----------|
D|-4-------4-----------2----------|-2-------2-----------0----------|
A|-4-------4-----------0----------|-2-------2----------------------|
E|-2---2---2---2---2--------------|-0---0---0---0---0--------------|


___F5__________________A5___________E5_____________________________
                    "  o - k  "
e|--------------------------------|--------------------------------|
B|--------------------------------|--------------------------------|
G|---------------------2---2------|--------------------------------|
D|-4---4---4-----------2---2------|-2---2---2----------------------|
A|-4---4---4-----------0---0------|-2---2---2----------------------|
E|-2---2---2----------------------|-0---0---0----------------------|


Repeat verse.

Repeat chorus.


Middle part:


___Fmaj7___________________________________________________________
 " my     room     has     the      mo   -  dern    style   of... "
e|-0------------------------------|--------------------------------|
B|-1------------------------------|--------------------------------|
G|-2------------------------------|--------------------------------|
D|-3------------------------------|--------------------------------|
A|-3------------------------------|--------------------------------|
E|-1------------------------------|--------------------------------|


___G6______________________________________________________________
" interior deco  - ra   -  tion... "
e|-0------------------------------|--------------------------------|
B|-3------------------------------|--------------------------------|
G|-4------------------------------|--------------------------------|
D|-5------------------------------|--------------------------------|
A|-5------------------------------|--------------------------------|
E|-3------------------------------|--------------------------------|


Repeat middle part chord sequence a few times.

Repeat verse and chorus.


Lyrics:

I get so tired of my room
It makes the same sounds every day
Sometimes I move my things around
It helps eliminate the boredom

There is no order in my room
A place where accidents can happen
I like the table and my chair
Sometimes I listen to their pattern

Furniture music...
I make furniture music...
I like furniture music...
Ok...

I sit alone inside my room
It makes me feel as if I'm happy
Sometimes when I have time to kill
I watch the world outside my window

It never rains inside my room
My carpet is the colour green
There is a lock on every door
One never knows what things may happen

Furniture music...
I make furniture music...
I like furniture music...
Ok...

My room has the modern style of interior decoration
My room is a model of design
When I'm feeling happy I make furniture music
When I'm feeling sad I watch the rain...
When I'm feeling sad I watch the rain...

I like to read books in my room
It helps me in my quest for knowledge
Sometimes I think about my life
The source of all my inspiration

There is a clock upon the wall
I light a fire in the winter
It's light illuminates my room
And throws my shadow in the corner

Furniture music...
I make furniture music...
I like furniture music...
I am furniture...


Words and music by Bill Nelson.






Related for Furniture Music tab
Advertisement will be closed in 10 seconds