Guitaretab - guitar tabs
Song name
# A B C D E F G H I J K L M N O P Q R S T U V W X Y Z

Red October - Rollin Conundrum tab

Intro
e-----------------------(0)----------------------------------------|
b------------------------------------------------------------------|
g------------------------------------------------------------------|
d--5-3b---------------8--8-8-6-6-6-4-4-3---------------------------|
a-------5--3----------8--8-8-6-6-6-4-4-3---------------------------|
e------------5--3/5/7/6--6-6-4-4-4-2-2-1---------------------------|
the power chords carry on through verse & bridge
Chorus
e--------------------------------------------------|
b--------------------------------------------------|
g--------------------------------------------------|
d---8-8--5-5-4h------------------------------------|
a---8-8--5-5-4h------------------------------------|
e---6-6--3-3-2h------------------------------------|
[ Tab from: http://www.guitaretab.com/r/red-october/43479.html ]