Song name
# A B C D E F G H I J K L M N O P Q R S T U V W X Y Z

Red Riders - I Think Youre Blind tab

-------------------------------------------------------------------------------
		       I Think You're Blind - Red Riders
-------------------------------------------------------------------------------
Tabbed by: SatteliteCity
Email: batchie_says_let_there_be_rock@hotmail.com

Any corrections or suggestions on this song or if you want any other Red Rider songs 
please email me.

Tuning: standard


Chorus/Intro: Dm, A, #A, F, #A, F, G, F

Then:
e|--------------------------------------------------------------|
B|--------------------------------------------------------------|
G|--33333-------33333-------------------------------------------|
D|--33333--555--33333--555--------------------------------------|
A|---------555---------555--------------------------------------|
E|--------------------------------------------------------------|


Verse:
e|----5-------------5----------5------------5-------------------|
B|-----6--5-6--------6--5-6-----6--5-6--------5h6p5-------------|
G|------7-----7-5-----7-----7----7-----7-5----------7-----------|
D|--------------------------------------------------------------|
A|--------------------------------------------------------------|
E|--------------------------------------------------------------|
Twice. There are slight variations on this throughout the song, but the only major one 
in the second verse when second guitar plays this:

e|--------------------------------------------------------------|
B|--------------------------------------------------------------|
G|--6b7-7-7-7-7-7-7-5~-5~-x3--6b7-5/10--------------------------|
D|--------------------------------------------------------------|
A|--------------------------------------------------------------|
E|--------------------------------------------------------------|
Twice.


Pre-chorus: #A, C


Bridge: C, Dm, F, G, C, Dm, F, G,

e|--8----1---8----13--------------------------------------------|
B|--10---1---10---13--------------------------------------------|
G|--10---2---10---14--------------------------------------------|
D|--10---3---10---15--------------------------------------------|
A|--8----3---8----15--------------------------------------------|
E|--8----1---8----13--------------------------------------------|

  A, #A, C


Ends with:
e|--------------------------------------------------------------|
B|--------------------------------------------------------------|
G|--33333-------33333-------33333-------33333--555--------------|
D|--33333--555--33333--555--33333--555--33333--555--------------|
A|---------555---------555---------555--------------------------|
E|--------------------------------------------------------------|


Song Structure:

Intro
Verse
Pre-Chorus
Chorus
Verse
Pre-Chorus
Chorus
Bridge
Chorus

| /  slide up
| \  slide down
| h  hammer-on
| p  pull-off
| ~  vibrato
| +  harmonic
| x  Mute note
===============================================================================
Tap to rate this tab
 
# A B C D E F G H I J K L M N O P Q R S T U V W X Y Z