Guitaretab - guitar tabs
Song name
# A B C D E F G H I J K L M N O P Q R S T U V W X Y Z

Red Riders - Punk Bitch tab

Punk Bitch  Cheese farmers
-------------------------------------------------------------------------------
Tabbed by: Mike Delo 
Email: delo_69@hotmailawsum.com

Tuning: Standard

Intro
e|---------------------------------------------------------------------------|
B|---------------------------------------------------------------------------|
G|---------------------------------------------------------------------------|
D|------5-----5-----5--------------7-----7-----7-----------------------------| X2
A|--3-3---3-3---3-3---3-3-5---5-5---5-5---5-5---5-5-7------------------------|
E|---------------------------------------------------------------------------|

e|---------------------------------------------------------------------------|
B|---------------------------------------------------------------------------|
G|-------------------------------7-------------------------------------------|
D|----5---7---5---7---5----7-----7-------------------------------------------|
A|--3---5---3---5---3----5--5-7--5-------------------------------------------|
E|---------------------------------------------------------------------------|
[ Tab from: http://www.guitaretab.com/r/red-riders/96854.html ]
Verse
e|---------------------------------------------------------------------------|
B|---------------------------------------------------------------------------|
G|--5-5-5-5-5-5-5---------7--7-7---------------------------------------------|
D|--5-5-5-5-5-5-5--5-5-5--7--7-7--7-7-7--------------------------------------| X 3
A|--3-3-3-3-3-3-3--5-5-5--5--5-5--7-7-7--------------------------------------|
E|-----------------3-3-3----------5-5-5--------------------------------------|

Chorus
e|---------------------------------------------------------------------------|
B|---------------------------------------------------------------------------|
G|--5--5-5-5-5-5-5-5--------------------------------------7--7-7-7-7-7-7-7---|
D|--5--5-5-5-5-5-5-5--5--5-5-5-5-5-5-5--7--7-7-7-7-7-7-7--7--7-7-7-7-7-7-7---| X 2
A|--3--3-3-3-3-3-3-3--5--5-5-5-5-5-5-5--7--7-7-7-7-7-7-7--5--5-5-5-5-5-5-5---|
E|--------------------3--3-3-3-3-3-3-3--5--5-5-5-5-5-5-5---------------------|

Intro X1
Verse X2
ChorusX2

Solo interlude thing
e|---------------------------------------------------------------------------|
B|---------------------------------------------------------------------------|
G|--5-5-5---------5-5-5------------------------------------------------------|
D|--5-5-5--5-7-5--5-5-5--5-7-9-----------------------------------------------| X2
A|--3-3-3--5-7-5--3-3-3--5-7-9----------------------- -----------------------|
E|---------3-5-3---------3-5-7-----------------------------------------------|

Chorus X2

Outro? 
e|---------------------------------------------------------------------------|
B|---------------------------------------------------------------------------|
G|--7--7-7-7-7-7-7-7---------------------------------------------------------|
D|--7--7-7-7-7-7-7-7--7------------------------------------------------------|
A|--5--5-5-5-5-5-5-5--7------------------------------------------------------|
E|--------------------5------------------------------------------------------|

===============================================================================
Related for Punk Bitch tab