Song name
# A B C D E F G H I J K L M N O P Q R S T U V W X Y Z

Red River - Nine Lives tab

ReD RiVeR
Nine Lives
Return of the Carpet Cleaning Sea Creatures

Tuning (high to low): C-G-C-F-A-D

Intro:            note: *=harmonics

--------------------------------|
--------------------------------|
----------------7*--------------|
0---0-0-1---5-------0---1-1-1-1-|
0---0-0-1---5-------0---1-1-1-1-|
0---0-0-1---5-------0---1-1-1-1-|

Chorus:
--------------------------------|
--------------------------------|
----------------7*--------------|
0---0-0-1---5-------0---1-1-1-1-|  4 times
0---0-0-1---5-------0---1-1-1-1-|
0---0-0-1---5-------0---1-1-1-1-|

--------------------------------|
--------------------------------|
--------------------------------|
3-3-3---1-1-1---0---------------|
3-3-3---1-1-1---0---------------|
3-3-3---1-1-1---0---------------|

Verses:

----------------------------------|
10------8-10-8-10-11--------------|
----------------------------------|
----------------------------------|
--------------------------------\-|
----------------------------------| \
                                  \
--------------------------------------|   \
10-11-10-11-10------------------------|    \
--------------------------------------|     \
--------------------------------------| Play all these twice
--------------------------------------|    /
--------------------------------------|   /
                                  /
---------------------------------| /
10-10-10-8-----------------------|
-----------7---------------------|
---------------------------------|
---------------------------------|
---------------------------------|

Chorus

Verse

Chorus 2x

Bridge:

--------------------------------|
--------------------------------|
--------------------------------|
2-------1-------0---------------|
2-------1-------0---------------|
2-------1-------0---------------|

------------------------------------|
------------------------------------|
------------------------------------|
2-2-----1-1-----0-0---------0-0-0-0-|
2-2-----1-1-----0-0---------0-0-0-0-|
2-2-----1-1-----0-0---------0-0-0-0-|

--------------------------------|
--------------------------------|
--------------------------------|
2-------1-------0---------------| 2 times
2-------1-------0---------------|
2-------1-------0---------------|

--------------------------------|
--------------------------------|
--------------------------------|
2-2-2-2-2-2-2-2-1-1-1-1-1-1-1-1-|
2-2-2-2-2-2-2-2-1-1-1-1-1-1-1-1-|
2-2-2-2-2-2-2-2-1-1-1-1-1-1-1-1-|

--------------------------------|
--------------------------------|
--------------------------------|
0-0-0-0-0-0-0-0-0-0-0-0-0-0-0-0-|
0-0-0-0-0-0-0-0-0-0-0-0-0-0-0-0-|
0-0-0-0-0-0-0-0-0-0-0-0-0-0-0-0-|

--------------------------------|
--------------------------------|
--------------------------------|
2-2-2-2-2-2-2-2-1-1-1-1-1-1-1-1-|
2-2-2-2-2-2-2-2-1-1-1-1-1-1-1-1-|
2-2-2-2-2-2-2-2-1-1-1-1-1-1-1-1-|

Chorus

--------------------------------|
--------------------------------|
----------------7*--------------|
0---0-0-1---5-------0---1-1-1-1-| 2 times
0---0-0-1---5-------0---1-1-1-1-|
0---0-0-1---5-------0---1-1-1-1-|

slow down tempo
--------------------------------|
--------------------------------|
--------------------------------|
2-------1-------0---------------|
2-------1-------0---------------|
2-------1-------0---------------|

                ^ end on this

~35 Lives; a.k.a. Manchild
zegro422sowl@yahoo.com
Tap to rate this tab
# A B C D E F G H I J K L M N O P Q R S T U V W X Y Z