Song name
# A B C D E F G H I J K L M N O P Q R S T U V W X Y Z

Red Roses For A Blue Lady - She Doesnt Like Rock N Roll tab

www.myspace.com/redrosesforablueladymusic

RED ROSES FOR A BLUE LADY - SHE DOESN'T LIKE ROCK N' ROLL

    D|------- x3 ------|-------|
    A|-----------------|-------|
GTR F|-----------------|-------|    
 1  C|-0h2p0h2h3p2p0h2-|-2-2-3-| 1,3              
    G|-----------------|-2-2-3-|
    D|-----------------|-0-0-1-|
                         PMP M

    D|----- x3 --------|-------|
    A|-----------------|-------|
GTR F|-----------------|-------|    
 2  C|-2---------------|-2-2-3-| 1,3             
    G|-2---------------|-2-2-3-|
    D|-0---------------|-0-0-1-|
       PM                PMP M

    D|----- x3 --------|-------|
    A|-----------------|-10----|
GTR F|-----------------|-------|    
 1  C|-0h2p0h2h3p2p0h2-|-------| 2              
    G|-----------------|-------|
    D|-----------------|-------|                     

    D|----- x3 --------|-------|
    A|-----------------|-------|
GTR F|-----------------|-------|    
 2  C|-2---------------|-2-2-3-| 2             
    G|-2---------------|-2-2-3-|
    D|-0---------------|-0-0-1-|
       PM                PMP M

    D|------- x3 ------|----------|
    A|-----------------|----------|
GTR F|-----------------|----------|    
 1  C|-0h2p0h2h3p2p0h2-|-2-2--2-2-| 4           
    G|-----------------|-2-2--2-2-|
    D|-----------------|-0-0--0-0-|
                         P M  P M

    D|----- x3 --------|----------|
    A|-----------------|----------|
GTR F|-----------------|----------|    
 2  C|-2---------------|-2-2--2-2-| 4          
    G|-2---------------|-2-2--2-2-|
    D|-0---------------|-0-0--0-0-|
       PM                P M

    D|-----0-------------0-----|---- x2 -----|
    A|-------------------------|-------------|
GTR F|-------4-------4-----4---|-3-----------|    
1+2 C|-2-------5---5---5-----5-|-2-2-1-2-1-0-|              
    G|-2---------7-------------|---2-1-2-1-0-|
    D|-0-----------------------|---2-1-2-1-0-|
                                   P M P MPM

    D|---------------------|
    A|---------------------|
GTR F|---------------------|    
1+2 C|-2-------------4-5-4-|              
    G|-2-2-2-2-2-2-2-------|
    D|-0-0-0-0-0-0-0-------|
         P M P M P M

    D|-------------------------------------------------------|
    A|-------------------------------------------------------|
GTR F|--------------5-------------7-------------4------------|    
1+2 C|2-------4-5-4-5-55555-4-5-4-7-77777-4-5-4-4-44444-4-5-4|              
    G|2-22222-------3-33333-------5-55555-------2-22222------|
    D|0-00000------------------------------------------------|

    D|--------------------------------|
    A|--------------------------------|
GTR F|-----9-----10-----9----10-13-10-|    
1+2 C|-----9-----10-----9----10-13-10-|              
    G|-2-2-7-2-2-8--2-2-7-22-8--11-8--|
    D|-0-0---0-0----0-0---00----------|
       P M   P M    P M   PM

    D|---------------------------------------|
    A|---------------------------------------|
GTR F|-----9-----10-----9--------------------|    
1+2 C|-----9-----10-----9------------6-------|              
    G|-2-2-7-2-2-8--2-2-7-22-7-8-7-8---8-7---|
    D|-0-0---0-0----0-0---00---------------6-|
       P M   P M    P M   PM

    D|--------------------------------|
    A|--------------------------------|
GTR F|-----9-----10-----9----10-13-10-|    
 1  C|-----9-----10-----9----10-13-10-|              
    G|-2-2-7-2-2-8--2-2-7-22-8--11-8--|
    D|-0-0---0-0----0-0---00----------|
       P M   P M    P M   PM

    D|--------------------------------|
    A|--------------------------------|
GTR F|-----9-----10-----9----10-13-10-|    
 2  C|-----9-----PH-----9----10-13-10-|              
    G|-2-2-7-2-2----2-2-7-22-8--11-8--|
    D|-0-0---0-0----0-0---00----------|
       P M   P M    P M   PM

    D|--------------------------------|
    A|--------------------------------|
GTR F|-----9-----10-----9----9-10-9---|    
1+2 C|-----9-----10-----9----9-10-9-8-|              
    G|-2-2-7-2-2-8--2-2-7-22-7-8--7-8-|
    D|-0-0---0-0----0-0---00--------6-|
       P M   P M    P M   PM


    D|------- x3 ------|-------|
    A|-----------------|-------|
GTR F|-----------------|-------|    
 1  C|-0h2p0h2h3p2p0h2-|-2-2-3-| 1,3              
    G|-----------------|-2-2-3-|
    D|-----------------|-0-0-1-|
                         PMP M

    D|----- x3 --------|-------|
    A|-----------------|-------|
GTR F|-----------------|-------|    
 2  C|-2---------------|-2-2-3-| 1,3             
    G|-2---------------|-2-2-3-|
    D|-0---------------|-0-0-1-|
       PM                PMP M

    D|----- x3 --------|-------|
    A|-----------------|-10----|
GTR F|-----------------|-------|    
 1  C|-0h2p0h2h3p2p0h2-|-------| 2              
    G|-----------------|-------|
    D|-----------------|-------|                     

    D|----- x3 --------|-------|
    A|-----------------|-------|
GTR F|-----------------|-------|    
 2  C|-2---------------|-2-2-3-| 2             
    G|-2---------------|-2-2-3-|
    D|-0---------------|-0-0-1-|
       PM                PMP M

    D|------- x3 ------|----------|
    A|-----------------|----------|
GTR F|-----------------|----------|    
 1  C|-0h2p0h2h3p2p0h2-|-2-2------| 4           
    G|-----------------|-2-2------|
    D|-----------------|-0-0------|
                         P M  

    D|----- x3 --------|-----5*-----|
    A|-----------------|-----5*-----|
GTR F|-----------------|-----5*-----|    
 2  C|-2---------------|-2-2-5*-----| 4          
    G|-2---------------|-2-2-5*-----|
    D|-0---------------|-0-0-5*-----|
       PM                P M

    D|---------------------------|
    A|---------------------------|
GTR F|---------------------------|    
 1  C|-0h2---0h3p2p0h2-----------| bunch of times            
    G|---------------------------|
    D|---------------------------|

    D|---------------------------|
    A|---------------------------|
GTR F|---------------------------|    
1+2 C|-2-------------------------|              
    G|-2-------------------------|
    D|-0-------------------------|

    D|-----------------------------------------------|
    A|-7-7-7-7-7-7-7-7-------------------------------|
GTR F|-7-7-7-7-7-7-7-7-7--7--7--7--7--7--7--7--7--7--|    
1+2 C|-5-5-5-5-5-5-5-5-9--9--9--9--9--9--9--9--9--9--|              
    G|-----------------10-10-10-10-10-10-10-10-10-10-|
    D|-----------------------------------------------|

    D|-------------------------------------------------------|
    A|-7-7-7-7-7-7-8-8-8-8-8-8-------------------------------|
GTR F|-7-7-7-7-7-7-7-7-7-7-7-7-7--7--7--7--7--7--7--7--7--7--|    
1+2 C|-5-5-5-5-5-5-5-5-5-5-5-5-9--9--9--9--9--9--9--9--9--9--|              
    G|-------------------------10-10-10-10-10-10-10-10-10-10-|
    D|-------------------------------------------------------|

 -------------------------------------------------------------

    D|-----------------------------------------------|
    A|-----------------------------------------------|
GTR F|-999999-111111-1212121212-11111111111111111111-|    
1+2 C|-----------------------------------------------| 1,3             
    G|-777777-9-9-9--1010101010-9-9-9-9-9-9-9-9-9-9--|
    D|-----------------------------------------------|

    D|----------------------------------|
    A|----------------------------------|
GTR F|-1212121212-1111111111-1414141414-|    
1+2 C|----------------------------------| 1,3             
    G|-1010101010-9-9-9-9-9--1212121212-|
    D|----------------------------------|


-------------------------------------------------------------

    D|----------------------------------|
    A|----------------------------------|
GTR F|-999999-111111-777-666-1111111111-|    
1+2 C|----------------------------------| 2             
    G|-777777-9-9-9--555-444-9-9-9-9-9--|
    D|----------------------------------|

    D|-----------------------------|
    A|-----------------------------|
GTR F|-1212121212-11111111---------|    
1+2 C|-----------------------------| 2             
    G|-1010101010-9-9-9-9--2--2--2-|
    D|---------------------0--0--0-|

------------------------------------------------------------

    D|-----------------------------------------|
    A|-----------------------------------------|
GTR F|-9-9-9-9-9-9-11-11-11-7-7-7-6-6-6-4------|    
1+2 C|----------------------------------4-(LR)-| 4             
    G|-7-7-7-7-7-7-9--9--9--5-5-5-4-4-4-2------|
    D|-----------------------------------------|

    D|---------------0-----|
    A|---------------------|
GTR F|---------4-------0---|    
1+2 C|---4-0-4---4-0-----4-| x2              
    G|-2-------------------|
    D|---------------------|

    D|-------------------------------0-----|
    A|-----0-------0-------------------0---|
GTR F|-----0---------0---------4---------0-|    
1+2 C|-------0-----------4-0-4---4-0-------|              
    G|-------------------------------------|
    D|-3-------3-------2-------------------|

    D|---------------0-----|
    A|---------------------|
GTR F|---------4-------0---|    
1+2 C|---4-0-4---4-0-----4-| x2              
    G|-2-------------------|
    D|---------------------|

    D|---------------------------------------------|
    A|-----0-------0---0-0-0-0-0-0-0-0-0-0-0-0-0-0-|
GTR F|-----0---------0-0-0-0-0-0-0-0-0-0-0-0-0-0-0-|    
1+2 C|-------0---------4-4-4-4-4-4-4-4-4-4-4-4-4-4-|              
    G|---------------------------------------------|
    D|-3-------3-------2-2-2-2-2-2-2-2-2-2-2-2-2-2-|

----------------------------------------------------------

    D|----------------------------------------------------|
    A|----------------------------------------------------|
GTR F|-99999-1111111111111111-121212121212121212-11111111-|    
1+2 C|----------------------------------------------------| 1,2              
    G|-77777-9-9-9-9-9-9-9-9--101010101010101010-9-9-9-9--|
    D|----------------------------------------------------|

    D|----------------------------------------------|
    A|----------------------------------------------|
GTR F|-141414141414141414141414-77777777-666666-7-6-|    
1+2 C|----------------------------------------------| 1,2              
    G|-121212121212121212121212-55555555-444444-5-4-|
    D|----------------------------------------------|

---------------------------------------------------------

    D|----------------------------------------------------|
    A|----------------------------------------------------|
GTR F|-99999-1111111111111111-121212121212121212-11111111-|    
 1  C|----------------------------------------------------| 3             
    G|-77777-9-9-9-9-9-9-9-9--101010101010101010-9-9-9-9--|
    D|----------------------------------------------------|

    D|----------------------------------------------------|
    A|----------------------------------------------------|
GTR F|------------------------12----14----16-----18-------|    
 2  C|----------------------------------------------------| 3          
    G|------------------------10----12----14-----16-------|
    D|----------------------------------------------------|

    D|--------------------------------------------|
    A|--------------------------------------------|
GTR F|-141414141414141414141414-77777777-66666666-|    
 1  C|--------------------------------------------| 3              
    G|-121212121212121212121212-55555555-44444444-|
    D|--------------------------------------------|

    D|-------------------------------------------------------|
    A|-------------------------------------------------------|
GTR F|-191919191919191919191919-21--19--18--19--6666-9-7-6-7-|    
 2  C|-------------------------------------------------------| 3             
    G|-171717171717171717171717-19--17--16--17--4444-7-5-4-5-|
    D|-------------------------------------------------------|

    D|------------------------------------------------------|
    A|------------------------------------------------------|
GTR F|-99999-11111111111111-12121212121212-11111111---------|    
1+2 C|------------------------------------------------------| 4              
    G|-77777-9-9-9-9-9-9-9--10101010101010-9-9-9-9--5--5--4-|
    D|------------------------------------------------------|

END
Tap to rate this tab
 
# A B C D E F G H I J K L M N O P Q R S T U V W X Y Z