Red Roses For A Blue Lady - It Doesnt Make Me 10 Again tab

www.myspace.com/redrosesforablueladymusic

RED ROSES FOR A BLUE LADY - IT DOESN'T MAKE ME 10 AGAIN

    D|---------------|---------------|-----------|-----------|
    A|------1313-1212|------1212-1111|------88-77|------44-33|
GTR F|-9999----------|-8888----------|-4444------|-0000------|    
1+2 C|---------------|---------------|-----------|-----------|              
    G|---------------|---------------|-----------|-----------|
    D|------ x2 -----|------ x2 -----|---- x2 ---|---- x2 ---|

    D|---------0----------0------0-----3-0-|
    A|---------5-------------------0-------|
GTR F|---------------7-7----7-5------5-----|    
1+2 C|-2-2-2-2-2-----7-7------5------------|              
    G|-2-2-2-2-2-----5-5------3------------|
    D|-0-0-0-0-0---------------------------|

    D|---------------------------------------|
    A|---------------7*-5*-5*-7*-5*-5*-7*-5*-|
GTR F|---------------------------------------| 1,3   
1+2 C|-2------2------------------------------|              
    G|-2--2-2-2--2-2-------------------------|
    D|-0--0-0-0--0-0-------------------------|

    D|---------------------------------------|
    A|---------------7*-5*-5*----------------|
GTR F|-7------7----------------11/12-12-12---|    
1+2 C|-7--7-7-7--7-7-------------------------| 2              
    G|-5--5-5-5--5-5-----------9-/10-10-10---|
    D|---------------------------------------|

    D|---------------------------------------|
    A|---------------------------------------|
GTR F|-4------4------5-5-5-5-5-5-5-5---------|    
1+2 C|-5--5-5-5--5-5-5-5-5-5-5-5-5-5---------| 4              
    G|-2--2-2-2--2-2-3-3-3-3-3-3-3-3---------|
    D|---------------------------------------|

    D|------------------------------------------------|
    A|------------------------------------------------|
GTR F|------------------------------------------------|    
1+2 C|------------------------------------------------|              
    G|-7777-88-77777-88-1010-7777-88-77-1010-88-77-88-|
    D|------------------------------------------------|

    D|---------------------------|
    A|---------------------------|
GTR F|---------------------------|    
1+2 C|--------4----4-------------|              
    G|-2-2-2--4----4-------------|
    D|-0-0-0--2----3-------------|
       P M PM

    D|--- x4 --|---0-------0-----|
    A|---------|-----0-------0---|
GTR F|-------3-|-------0-------0-|    
1+2 C|---------|-4-------4-------|              
    G|-2-3-2---|-4-------4-------|
    D|-0-0-0---|-2-------3-------|

    D|---------------------------|
    A|---------------------------|
GTR F|---------------------------|    
1+2 C|---------------------------|              
    G|-2-2---2-2--2-2--2-2-------|
    D|-0-0---0-0--0-0--0-0-------|
       P M   P M  P M  P M

    D|- x7 |-----|
    A|-----|-----|
GTR F|-----|-----|    
1+2 C|-----|-----|              
    G|-2h3-|-5p3-|
    D|-0---|-0---|
       P M

    D|---------------------------|
    A|---------------------------|
GTR F|---------------------------|    
1+2 C|---------------------------|              
    G|-2-2---2--2-2-2------------|
    D|-0-0---0--0-0-0------------|

Tap to rate this tab
 
# A B C D E F G H I J K L M N O P Q R S T U V W X Y Z