Song name
# A B C D E F G H I J K L M N O P Q R S T U V W X Y Z

Red Sparowes - A Mutiny tab

1:06
C--5-----5-----5-----5-----5-----5-----5--6--3--5--1--3--0--1--|
G -----6-----5-----3-----5-----6-----8-------------------------|
D -------------------------------------------------------------|
A -------------------------------------------------------------|
E -------------------------------------------------------------|
B -------------------------------------------------------------|

C--5-----5-----5-----5-----5-----5-----5--6--|???
G -----6-----5-----3-----5-----6-----8-------|
D -------------------------------------------|
A -------------------------------------------|
E -------------------------------------------|
B -------------------------------------------|

1:31
C--5--6--3--5--1--3--0--1--| x2
G -------------------------|
D -------------------------|
A -------------------------|
E -------------------------|
B -------------------------|

C--3-5-6--3--5--1--3--0--1--|--5--6--3--5--6--9------10--|
G --------------------------|----------------------------|
D --------------------------|----------------------------|
A --------------------------|----------------------------|
E --------------------------|----------------------------|
B --------------------------|----------------------------|

3:11
C--5-----5-----5-----5-----5-----5-----5--6--3--5--1--3--0--1--| x6
G -----6-----5-----3-----5-----6-----8-------------------------|
D -------------------------------------------------------------|
A -------------------------------------------------------------|
E -------------------------------------------------------------|
B -------------------------------------------------------------|

4:53
C--5--6--3--5--1--3--0--1--| x2
G -------------------------|
D -------------------------|
A -------------------------|
E -------------------------|
B -------------------------|

C--3-5-6--3--5--1--3--0--1--|--5--6--3--5--1--3--0--1--|???
G --------------------------|--------------------------|
D --------------------------|--------------------------|
A --------------------------|--------------------------|
E --------------------------|--------------------------|
B --------------------------|--------------------------|
Tap to rate this tab
# A B C D E F G H I J K L M N O P Q R S T U V W X Y Z