Song name
# A B C D E F G H I J K L M N O P Q R S T U V W X Y Z

Red Sparowes - Alone And Unaware The Landscape Was Transformed In Front Of Our Eyes tab

"Alone and Unaware, The Landscape Was Transformed in Front of Our Eyes" Tab

Artist: Red Sparowes

http://www.redsparowes.com

Tuning: Dropped Db

Tabbed by: ANightToDismember - anighttodismember@gmail.com

Notes: This Tab includes most of the instruments played in the song.
Some notes are transposed because I used a Midi Sequencer to Tab this
(Tabit, visit http://www.Tabit.net), and I wanted to have some ringing
notes, so, if a note seems simply awkward to play, transpose it to
another string yourself ;)

I don't want to spam or anything but...

Check the complete Tabit Tab at http://www.tabit.net/tabs/list.php?f=3807


Copyright 2005, ANightToDismember. 

THIS WHOLE TAB IS FOR PRIVATE STUDY AND EDUCATIONAL PURPOSES ONLY.




=================================
=================================
=================================
=================================



FIRST INSTRUMENT TRACK: GUITAR



=================================
=================================
=================================
=================================




Distortion/Overdriven Guitar 1, Some Sustain.

(00:00)

Eb :-----------------------------------|----------------|10---------------|
Bb :13---------------------------------|----------------|-----------------|
Gb :-----------------------------------|----------------|-----------------|
Db :-----------------------------------|----------------|-----------------|
Ab :-----------------------------------|----------------|-----------------|
Db :-----------------------------------|----------------|-----------------|

                                                                        
Eb :----------------|11---------------|----------------|11--------------|
Bb :----------------|-----------------|----------------|----------------|
Gb :----------------|-----------------|----------------|----------------|
Db :----------------|-----------------|----------------|----------------|
Ab :----------------|-----------------|----------------|----------------|
Db :----------------|-----------------|----------------|----------------|

                    
Eb :----------------|
Bb :------13--------|
Gb :----------------|
Db :----------------|
Ab :----------------|
Db :----------------|

                                                                         
Eb :-----------------|----------------|10---------------|----------------|
Bb :13---------------|----------------|-----------------|----------------|
Gb :-----------------|----------------|-----------------|----------------|
Db :-----------------|----------------|-----------------|----------------|
Ab :-----------------|----------------|-----------------|----------------|
Db :-----------------|----------------|-----------------|----------------|

                                                                        
Eb :11---------------|----------------|6---------------|------8---------|
Bb :-----------------|----------------|----------------|----------------|
Gb :-----------------|----------------|----------------|----------------|
Db :-----------------|----------------|----------------|----------------|
Ab :-----------------|----------------|----------------|----------------|
Db :-----------------|----------------|----------------|----------------|

                                                                         
Eb :-*---------------|*---------------|10---------------|----------------|
Bb :13---------------|----------------|-----------------|----------------|
Gb :-----------------|----------------|-----------------|----------------|
Db :-----------------|----------------|-----------------|----------------|
Ab :-----------------|----------------|-----------------|----------------|
Db :-----------------|----------------|-----------------|----------------|

                                                                         
Eb :11---------------|----------------|6---------------|-----------------|
Bb :-----------------|----------------|----------------|------13---------|
Gb :-----------------|----------------|----------------|-----------------|
Db :-----------------|----------------|----------------|-----------------|
Ab :-----------------|----------------|----------------|-----------------|
Db :-----------------|----------------|----------------|-----------------|

                                                                         
Eb :-*---------------|*---------------|10---------------|----------------|
Bb :13---------------|----------------|-----------------|----------------|
Gb :-----------------|----------------|-----------------|----------------|
Db :-----------------|----------------|-----------------|----------------|
Ab :-----------------|----------------|-----------------|----------------|
Db :-----------------|----------------|-----------------|----------------|

                                                                         
Eb :11---------------|----------------|6---------------|-----------------|
Bb :-----------------|----------------|----------------|------13---------|
Gb :-----------------|----------------|----------------|-----------------|
Db :-----------------|----------------|----------------|-----------------|
Ab :-----------------|----------------|----------------|-----------------|
Db :-----------------|----------------|----------------|-----------------|




(00:49) Clean Guitar

Slide where needed. I Included most of the note slides in
another Guitar Track.

                                                       
Eb :--*-------------------|-----10------10---10---|------11------11---11---|
Bb :--8----8---8---8------|---8------8------------|---11-----11------------|
Gb :-----8---8------------|-8---------------------|12-------(12)-----------|
Db :(10)--------------(10)|10------(10)-----------|------------------------|
Ab :----------------------|-----------------------|------------------------|
Db :----------------------|-----------------------|------------------------|

                                                        
Eb :------13----13---13---|-15----------15---------15---|
Bb :---11----11-----------|------13--------13-----------|
Gb :13--------------------|-15--(15)-15-------(15)------|
Db :----------------------|(13)-------------------------|
Ab :----------------------|-----------------------------|
Db :----------------------|-----------------------------|

                                                           
Eb :-13-------13-------13----|-11---------11---------11----|
Bb :---------(11)-----(11)---|-----11----(11)-11----(11)---|
Gb :(12)-----(12)-----(12)---|(-8)-------------------------|
Db :-------------------------|--------13---------13--------|
Ab :-------------------------|-----------------------------|
Db :-------------------------|-----------------------------|

                                
Eb :11-10---------10-------10-8-|
Bb :-------------(11)-----------|
Gb :--------(12)------(12)------|    PLAY X 4
Db :----------------------------|
Ab :----------------------------|
Db :----------------------------|



(01:38) Clean Guitar/Slightly Overdriven/Some echo-Delay

                                                              
Eb :-----------------|---------------------|------------------|
Bb :-----8-----------|---------------------|------------------|
Gb :-----------------|-----12--------------|------------------|
Db :----10-----------|10------15-13-12-----|----13-------13---|
Ab :-----------------|---------------------|----15-------15---|
Db :-----------------|---------------------|------------------|

                                                                   
Eb :---------------------|------------------|----------------------|
Bb :---------------------|------------------|----------------------|
Gb :---------------------|------------------|------12--------------|
Db :13---13-15-13-12-----|13---17-----------|10-13----15-13-12-----|
Ab :15-------------------|15---15-----------|----------------------|
Db :---------------------|------------------|----------------------|

                                                                       
Eb :-------------------|-------------------------|---------------------|
Bb :-------------------|-------------------------|---------------------|
Gb :-------------------|-------------------------|---------------------|
Db :----13---13---15---|15-------17----17---18---|18---17--------------|
Ab :-------------------|-----15-(15)---15---15---|15------(15)---------|
Db :-------------------|-------------------------|---------------------|

                                                                     
Eb :------------------------|------------------|---------------------|
Bb :------------------------|------------------|---------------------|
Gb :--------12--------------|------------------|---------------------|
Db :10-(13)----15-13-12-----|----13-------13---|--10-13-15-13-12-----|
Ab :------------------------|----15-------15---|---------------------|
Db :------------------------|------------------|---------------------|

                                                                     
Eb :-----------------------|---------------------|-------------------|
Bb :-----------------------|---------------------|-------------------|
Gb :-----------------------|-----12--------------|-------------------|
Db :-13--10--17------------|10------15-13-12-----|----13---13---15---|
Ab :(15)----(15)-----------|---------------------|-------------------|
Db :-----------------------|---------------------|-------------------|

                             
Eb :-------------------------|
Bb :-------------------------|
Gb :-------------------------|
Db :15-------17----17---18---|
Ab :-----15-(15)---15---15---|
Db :-------------------------|

                                                                     
Eb :---------------------|------------------------|------------------|
Bb :---------------------|------------------------|------------------|
Gb :---------------------|--------12--------------|------------------|
Db :18---17--------------|10-(13)----15-13-12-----|----13-------13---|
Ab :15------(15)---------|------------------------|----15-------15---|
Db :---------------------|------------------------|------------------|

                                                                      
Eb :---------------------|----------------------|---------------------|
Bb :---------------------|----------------------|---------------------|
Gb :---------------------|----------------------|-----12--------------|
Db :--10-13-15-13-12-----|-13-----17------------|--10----15-13-12-----|
Ab :---------------------|(15)---(15)-----------|---------------------|
Db :---------------------|----------------------|---------------------|

                                                                       
Eb :-------------------|-------------------------|---------------------|
Bb :-------------------|-------------------------|---------------------|
Gb :-------------------|-------------------------|---------------------|
Db :----13---13---15---|15-------17----17---18---|18---17--------------|
Ab :-------------------|-----15-(15)---15---15---|15------(15)---------|
Db :-------------------|-------------------------|---------------------|

                                                                       
Eb :--------------------------|------------------|---------------------|
Bb :--------------------------|------------------|---------------------|
Gb :---------12---------------|------------------|---------------------|
Db :10--13-------15-13-12-----|----13-------13---|--10-13-15-13-12-----|
Ab :---(15)-(15)--------------|----15-------15---|---------------------|
Db :--------------------------|------------------|---------------------|

                                                                    
Eb :----------------------|---------------------|-------------------|
Bb :----------------------|---------------------|-------------------|
Gb :----------------------|-----12--------------|-------------------|
Db :-13-----17------------|--10----15-13-12-----|----13---13---15---|
Ab :(15)---(15)-----------|---------------------|-------------------|
Db :----------------------|---------------------|-------------------|

                             
Eb :-------------------------|
Bb :-------------------------|
Gb :-------------------------|
Db :15-------17----17---18---|
Ab :-----15-(15)---15---15---|
Db :-------------------------|



(02:28) Distortion Guitar


           pm pm                pm pm pm pm                             
Eb :----------------------|-----------------|------------------|
Bb :-------------13-------|-*---------------|------------------|
Gb :-------------12-------|-*---------------|---------15-------|
Db :13--10--x--x--x-------|12---x-x-x-x-x-x-|13---x-x-15-------|
Ab :10--10--x--x-13-------|12---x-x-x-x-x-x-|13---x-x-13-------|
Db :10--10-10-10----------|12---x-x-x-x-x-x-|13---x-x----------|

                                                           
Eb :----------------|------------------|-----8---*--8-*--8-|
Bb :----------------|---------13-------|*----x---*--x-*--x-|
Gb :*---------------|----------x-------|-----8---*--8-*--8-|
Db :8-x-x-x-x-x-x-x-|10---x-x-10-------|5-x-10---x-10-x-10-|
Ab :8-x-x-x-x-x-x-x-|10---x-x-10-------|5-x------x----x----|
Db :8-x-x-x-x-x-x-x-|10---x-x-10-------|5-x------x----x----|


                                          (02:41) Bass Goes Solo                               
Eb :-*--------8-------|*---------------|*---------------|----------------|
Bb :-*--------x-------|*---------------|*---------------|----------------|
Gb :-*--------8-------|7-7-7-7-7-7-7-7-|*---------------|----------------|
Db :13-x-x-x-10-x-x-x-|7---------------|*---------------|----------------|
Ab :13-x-x-x----x-x-x-|5---------------|*---------------|----------------|
Db :13-x-x-x----x-x-x-|0---------------|*---------------|----------------|

                                                                       
Eb :----------------|----------------|----------------|----------------|
Bb :----------------|----------------|----------------|----------------|
Gb :----------------|----------------|----------------|----------------|
Db :----------------|----------------|----------------|----------------|
Ab :----------------|----------------|----------------|----------------|
Db :----------------|----------------|----------------|----------------|

                                                          
Eb :----------------|----------------|
Bb :----------------|----------------|
Gb :----------------|----------------|
Db :----------------|----------------|
Ab :----------------|----------------|
Db :----------------|----------------|



(02:53) Overdriven Guitar

Eb :----------11--------|
Bb :----------13--------|
Gb :-----------x--------|
Db :10---10---13---10---|
Ab :10---10--------10---|
Db :10---10--------10---|

                                                                  
Eb :--------------------|--------------------|--------------------|
Bb :--------------------|--------------------|--------------------|
Gb :--------------------|--------------------|--------------------|
Db :10---10---10---10---|10---10---10---10---|10---10---10---10---|
Ab :10---10---10---10---|10---10---10---10---|10---10---10---10---|
Db :10---10---10---10---|10---10---10---10---|10---10---10---10---|

                                                                  
Eb :----------11--------|--------------------|--------------------|
Bb :----------13--------|--------------------|--------------------|
Gb :-----------x--------|--------------------|--------------------|
Db :10---10---13---10---|10---10---10---10---|10---10---10---10---|
Ab :10---10--------10---|10---10---10---10---|10---10---10---10---|
Db :10---10--------10---|10---10---10---10---|10---10---10---10---|

                          
                         (03:03) Clean Guitar/Slightly Overdriven               
Eb :--------------------|--------------------|--------------------|
Bb :--------------------|--------------------|--------------------|
Gb :--------------------|20---20---20---20---|20---20---20---20---|
Db :10---10---10---10---|-*------------------|--------------------|
Ab :10---10---10---10---|-*------------------|--------------------|
Db :10---10---10---10---|-*------------------|--------------------|

                                                                 
Eb :--------------------|--------------------|-------------------|
Bb :--------------------|--------------------|-------------------|
Gb :20---20---20---20---|20---20---20---20---|20---19------------|
Db :--------------------|--------------------|----------17-------|
Ab :--------------------|--------------------|-------------------|
Db :--------------------|--------------------|-------------------|


    (03:08) Guitar Rests and...                                                  
Eb :----------------|----------------|----------------|
Bb :----------------|----------------|----------------|
Gb :----------------|----------------|----------------|
Db :----------------|----------------|----------------|
Ab :----------------|----------------|----------------|
Db :----------------|----------------|----------------|

    (03:12) ...follows the same pattern                                                                  
Eb :--------------------|--------------------|--------------------|
Bb :--------------------|--------------------|--------------------|
Gb :20---20---20---20---|20---20---20---20---|20---20---20---20---|
Db :-*------------------|--------------------|--------------------|
Ab :-*------------------|--------------------|--------------------|
Db :-*------------------|--------------------|--------------------|

                                                             
Eb :--------------------|-------------------|----------------|
Bb :--------------------|-------------------|----------------|
Gb :20---20---20---20---|20---19------------|----------------|
Db :--------------------|----------17-------|----------------|
Ab :--------------------|-------------------|----------------|
Db :--------------------|-------------------|----------------|



    Rest 3 bars
Eb :----------------|----------------|
Bb :----------------|----------------|
Gb :----------------|----------------|
Db :----------------|----------------|
Ab :----------------|----------------|
Db :----------------|----------------|

    Starts again...                                                              
Eb :--------------------|--------------------|--------------------|
Bb :--------------------|--------------------|--------------------|
Gb :20---20---20---20---|20---20---20---20---|20---20---20---20---|
Db :--------------------|--------------------|--------------------|
Ab :--------------------|--------------------|--------------------|
Db :--------------------|--------------------|--------------------|

                                                             
Eb :--------------------|-------------------|----------------|
Bb :--------------------|-------------------|----------------|
Gb :20---20---20---20---|20---19------------|----------------|
Db :--------------------|----------17-------|----------------|
Ab :--------------------|-------------------|----------------|
Db :--------------------|-------------------|----------------|

                                                          
Eb :----------------|----------------|--------------------|
Bb :----------------|----------------|--------------------|
Gb :----------------|----------------|20---20---20---20---|
Db :----------------|----------------|-*------------------|
Ab :----------------|----------------|-*------------------|
Db :----------------|----------------|-*------------------|

    Plays for the last time...                                                              
Eb :--------------------|--------------------|--------------------|
Bb :--------------------|--------------------|--------------------|
Gb :20---20---20---20---|20---20---20---20---|20---20---20---20---|
Db :--------------------|--------------------|--------------------|
Ab :--------------------|--------------------|--------------------|
Db :--------------------|--------------------|--------------------|

                                                                          
Eb :-------------------|----------------|----------------|----------------|
Bb :-------------------|----------------|----------------|----------------|
Gb :20---19------------|----------------|----------------|----------------|
Db :----------17-------|----------------|----------------|----------------|
Ab :-------------------|----------------|----------------|----------------|
Db :-------------------|----------------|----------------|----------------|





    (03:36) Still sightly Overdriven/Light Distortion

Eb :--------------------|--------------------|--------------------|
Bb :13---13---13---13---|13---13---13---13---|15---15---15---15---|
Gb :--------------------|--------------------|--------------------|
Db :--------------------|--------------------|--------------------|
Ab :--------------------|--------------------|--------------------|
Db :--------------------|--------------------|--------------------|

                                                                  
Eb :--------------------|--------------------|--------------------|
Bb :15---15---15---15---|18---18---18---18---|18---18---18---18---|
Gb :--------------------|17----*---17--------|17---17---17---17---|
Db :--------------------|--------------------|--------------------|
Ab :--------------------|--------------------|--------------------|
Db :--------------------|--------------------|--------------------|

                                                                  
Eb :--------------------|--------------------|--------------------|
Bb :16---16---16---16---|16---16---16---16---|13---13---13---13---|
Gb :17---17---17---17---|17---17---17---17---|--------------------|
Db :--------------------|--------------------|--------------------|
Ab :--------------------|--------------------|--------------------|
Db :--------------------|--------------------|--------------------|

                                                                  
Eb :--------------------|--------------------|--------------------|
Bb :13---13---13---13---|15---15---15---15---|15---15---15---15---|
Gb :--------------------|--------------------|--------------------|
Db :--------------------|--------------------|--------------------|
Ab :--------------------|--------------------|--------------------|
Db :--------------------|--------------------|--------------------|

                                                                  
Eb :--------------------|--------------------|--------------------|
Bb :18---18---18---18---|18---18---18---18---|16---16---16---16---|
Gb :17----*---17--------|17---17---17---17---|17---17---17---17---|
Db :--------------------|--------------------|--------------------|
Ab :--------------------|--------------------|--------------------|
Db :--------------------|--------------------|--------------------|

                                                                  
Eb :--------------------|--------------------|--------------------|
Bb :16---16---16---16---|13---13---13---13---|13---13---13---13---|
Gb :17---17---17---17---|--------------------|--------------------|
Db :--------------------|--------------------|--------------------|
Ab :--------------------|--------------------|--------------------|
Db :--------------------|--------------------|--------------------|

                                                                  
Eb :--------------------|--------------------|--------------------|
Bb :15---15---15---15---|15---15---15---15---|18---18---18---18---|
Gb :--------------------|--------------------|17----*---17--------|
Db :--------------------|--------------------|--------------------|
Ab :--------------------|--------------------|--------------------|
Db :--------------------|--------------------|--------------------|

                                                                  
Eb :--------------------|--------------------|--------------------|
Bb :18---18---18---18---|16---16---16---16---|16---16---16---16---|
Gb :17---17---17---17---|17---17---17---17---|17---17---17---17---|
Db :--------------------|--------------------|--------------------|
Ab :--------------------|--------------------|--------------------|
Db :--------------------|--------------------|--------------------|

                                                                  
Eb :--------------------|--------------------|--------------------|
Bb :13---13---13---13---|13---13---13---13---|15---15---15---15---|
Gb :--------------------|--------------------|--------------------|
Db :--------------------|--------------------|--------------------|
Ab :--------------------|--------------------|--------------------|
Db :--------------------|--------------------|--------------------|

                                                                  
Eb :--------------------|--------------------|--------------------|
Bb :15---15---15---15---|18---18---18---18---|18---18---18---18---|
Gb :--------------------|17----*---17--------|17---17---17---17---|
Db :--------------------|--------------------|--------------------|
Ab :--------------------|--------------------|--------------------|
Db :--------------------|--------------------|--------------------|

                                              


                    
Eb :--------------------|--------------------
Bb :16---16---16---16---|16---16---16---16---
Gb :17---17---17---17---|17---17---17---17---
Db :--------------------|--------------------
Ab :--------------------|--------------------
Db :--------------------|--------------------



(04:06) Clean Guitar

Eb :|-*------------------|                    
Bb :|-*------------------|
Gb :|12---12---13---13---|
Db :|-*------------------|
Ab :|-*------------------|
Db :|-*------------------|
                                        
Eb :--------------------|------------------|----------------|
Bb :--------------------|------------------|----------------|
Gb :10---10---12---12---|8---8---10---10---|7---7---5---5---|
Db :--------------------|------------------|----------------|
Ab :--------------------|------------------|----------------|
Db :--------------------|------------------|----------------|

                                                                
Eb :--------------------|--------------------|------------------|
Bb :--------------------|--------------------|------------------|
Gb :12---12---13---13---|10---10---12---12---|8---8---10---10---|
Db :--------------------|--------------------|------------------|
Ab :--------------------|--------------------|------------------|
Db :--------------------|--------------------|------------------|

                                                              
Eb :----------------|--------------------|--------------------|
Bb :----------------|--------------------|--------------------|
Gb :7---7---5---5---|12---12---13---13---|10---10---12---12---|
Db :----------------|--------------------|--------------------|
Ab :----------------|--------------------|--------------------|
Db :----------------|--------------------|--------------------|

                                                            
Eb :------------------|----------------|--------------------|
Bb :------------------|----------------|--------------------|
Gb :8---8---10---10---|7---7---5---5---|12---12---13---13---|
Db :------------------|----------------|--------------------|
Ab :------------------|----------------|--------------------|
Db :------------------|----------------|--------------------|

                                                            
Eb :--------------------|------------------|----------------|
Bb :--------------------|------------------|----------------|
Gb :10---10---12---12---|8---8---10---10---|7---7---5---5---|
Db :--------------------|------------------|----------------|
Ab :--------------------|------------------|----------------|
Db :--------------------|------------------|----------------|

    


   (04:25) Distortion Guitar,
                                                                    
Eb :11------11------11------11---|11---11---11---11---|11---11---11---11---|
Bb :-----------------------------|--------------------|--------------------|
Gb :----------------12-----------|--------------------|--------------------|
Db :12------10-10----x-----------|--------------------|--------------------|
Ab :10------10------10-----------|--------------------|--------------------|
Db :10------10------10-----------|--------------------|--------------------|

                                                                  
Eb :11---11---11---11---|13---13---13---13---|13---13---13---13---|
Bb :--------------------|--------------------|--------------------|
Gb :--------------------|--------------------|--------------------|
Db :--------------------|--------------------|--------------------|
Ab :--------------------|--------------------|--------------------|
Db :--------------------|--------------------|--------------------|

                                             
Eb :11---11---11---11---|11---11---11---11---|
Bb :--------------------|--------------------|
Gb :--------------------|--------------------|
Db :--------------------|--------------------|
Ab :--------------------|--------------------|
Db :--------------------|--------------------|

                                                                           
Eb :11------11------11------11---|11---11---11---11---|11---11---11---11---|
Bb :-----------------------------|--------------------|--------------------|
Gb :----------------12-----------|--------------------|--------------------|
Db :12------10-10----x-----------|--------------------|--------------------|
Ab :10------10------10-----------|--------------------|--------------------|
Db :10------10------10-----------|--------------------|--------------------|

                                                                  
Eb :11---11---11---11---|13---13---13---13---|13---13---13---13---|
Bb :--------------------|--------------------|--------------------|
Gb :--------------------|--------------------|--------------------|
Db :--------------------|--------------------|--------------------|
Ab :--------------------|--------------------|--------------------|
Db :--------------------|--------------------|--------------------|

                                                                           
Eb :11---11---11---11---|11---11---11---11---|11------11------11------11---|
Bb :--------------------|--------------------|-----------------------------|
Gb :--------------------|--------------------|----------------12-----------|
Db :--------------------|--------------------|12------10-10----x-----------|
Ab :--------------------|--------------------|10------10------10-----------|
Db :--------------------|--------------------|10------10------10-----------|

                                                                  
Eb :11---11---11---11---|11---11---11---11---|11---11---11---11---|
Bb :--------------------|--------------------|--------------------|
Gb :--------------------|--------------------|--------------------|
Db :--------------------|--------------------|--------------------|
Ab :--------------------|--------------------|--------------------|
Db :--------------------|--------------------|--------------------|

                                                                  
Eb :13---13---13---13---|13---13---13---13---|11---11---11---11---|
Bb :--------------------|--------------------|--------------------|
Gb :--------------------|--------------------|--------------------|
Db :--------------------|--------------------|--------------------|
Ab :--------------------|--------------------|--------------------|
Db :--------------------|--------------------|--------------------|

                                                                           
Eb :11---11---11---11---|11------11------11------11---|11---11---11---11---|
Bb :--------------------|-----------------------------|--------------------|
Gb :--------------------|----------------12-----------|--------------------|
Db :--------------------|12------10-10----x-----------|--------------------|
Ab :--------------------|10------10------10-----------|--------------------|
Db :--------------------|10------10------10-----------|--------------------|

                                                                  
Eb :11---11---11---11---|11---11---11---11---|13---13---13---13---|
Bb :--------------------|--------------------|--------------------|
Gb :--------------------|--------------------|--------------------|
Db :--------------------|--------------------|--------------------|
Ab :--------------------|--------------------|--------------------|
Db :--------------------|--------------------|--------------------|

                                                                  
Eb :13---13---13---13---|11---11---11---11---|11---11---11---11---|
Bb :--------------------|--------------------|--------------------|
Gb :--------------------|--------------------|--------------------|
Db :--------------------|--------------------|--------------------|
Ab :--------------------|--------------------|--------------------|
Db :--------------------|--------------------|--------------------|



    (04:56) Set of Clean Guitars, almost finished
                                                                       
Eb :*---------------|----------------|------------------|------------------|
Bb :8---8---8---8---|8---9---9---9---|-*----------------|------------------|
Gb :*---------------|----------------|10---10---8---8---|8---8----*--------|
Db :*---------------|----------------|------------------|--------10---10---|
Ab :*---------------|----------------|------------------|------------------|
Db :*---------------|----------------|------------------|------------------|

                                                                           
Eb :----------------|----------------|------------------|------------------|
Bb :8---8---8---8---|8---9---9---9---|-*----------------|------------------|
Gb :----------------|----------------|10---10---8---8---|8---8----*--------|
Db :*---------------|----------------|------------------|--------10---10---|
Ab :----------------|----------------|------------------|------------------|
Db :----------------|----------------|------------------|------------------|

                                                                           
Eb :----------------|----------------|------------------|------------------|
Bb :8---8---8---8---|8---9---9---9---|-*----------------|------------------|
Gb :----------------|----------------|10---10---8---8---|8---8----*--------|
Db :*---------------|----------------|------------------|--------10---10---|
Ab :----------------|----------------|------------------|------------------|
Db :----------------|----------------|------------------|------------------|

                                                                           
Eb :----------------|----------------|------------------|------------------|
Bb :8---8---8---8---|8---9---9---9---|-*----------------|------------------|
Gb :----------------|----------------|10---10---8---8---|8---8----*--------|
Db :*---------------|----------------|------------------|--------10---10---|
Ab :----------------|----------------|------------------|------------------|
Db :----------------|----------------|------------------|------------------|

                                                                
Eb :--------------------|--------------------|------------------|
Bb :--------------------|-----11----*--------|------------------|
Gb :12---12---12---13---|12----*---12---10---|10---10---8---8---|
Db :-*------------------|--------------------|------------------|
Ab :--------------------|--------------------|------------------|
Db :--------------------|--------------------|------------------|

                      
Eb :------------------|
Bb :------------------|
Gb :8---8----*--------|
Db :--------10---10---|
Ab :------------------|
Db :------------------|

                                                                
Eb :--------------------|--------------------|------------------|
Bb :--------------------|-----11----*--------|------------------|
Gb :12---12---12---13---|12----*---12---10---|10---10---8---8---|
Db :-*------------------|--------------------|------------------|
Ab :--------------------|--------------------|------------------|
Db :--------------------|--------------------|------------------|

                                                                
Eb :------------------|--------------------|--------------------|
Bb :------------------|--------------------|-----11----*--------|
Gb :8---8----*--------|12---12---12---13---|12----*---12---10---|
Db :--------10---10---|-*------------------|--------------------|
Ab :------------------|--------------------|--------------------|
Db :------------------|--------------------|--------------------|

                                                              
Eb :------------------|------------------|--------------------|
Bb :------------------|------------------|--------------------|
Gb :10---10---8---8---|8---8----*--------|12---12---12---13---|
Db :------------------|--------10---10---|-*------------------|
Ab :------------------|------------------|--------------------|
Db :------------------|------------------|--------------------|

                                                              
Eb :--------------------|------------------|------------------|
Bb :-----11----*--------|------------------|------------------|
Gb :12----*---12---10---|10---10---8---8---|8---8----*--------|
Db :--------------------|------------------|--------10---10---|
Ab :--------------------|------------------|------------------|
Db :--------------------|------------------|------------------|

                                                                           
Eb :----------------|----------------|------------------|------------------|
Bb :8---8---8---8---|8---9---9---9---|-*----------------|------------------|
Gb :----------------|----------------|10---10---8---8---|8---8----*--------|
Db :*---------------|----------------|------------------|--------10---10---|
Ab :*---------------|----------------|------------------|------------------|
Db :----------------|----------------|------------------|------------------|

                                                                           
Eb :----------------|----------------|------------------|------------------|
Bb :8---8---8---8---|8---9---9---9---|-*----------------|------------------|
Gb :----------------|----------------|10---10---8---8---|8---8----*--------|
Db :*---------------|----------------|------------------|--------10---10---|
Ab :----------------|----------------|------------------|------------------|
Db :----------------|----------------|------------------|------------------|

                                                                           
Eb :----------------|----------------|------------------|------------------|
Bb :8---8---8---8---|8---9---9---9---|-*----------------|------------------|
Gb :----------------|----------------|10---10---8---8---|8---8----*--------|
Db :*---------------|----------------|------------------|--------10---10---|
Ab :----------------|----------------|------------------|------------------|
Db :----------------|----------------|------------------|------------------|

                                                                           
Eb :----------------|----------------|------------------|------------------|
Bb :8---8---8---8---|8---9---9---9---|-*----------------|------------------|
Gb :----------------|----------------|10---10---8---8---|8---8----*--------|
Db :*---------------|----------------|------------------|--------10---10---|
Ab :----------------|----------------|------------------|------------------|
Db :----------------|----------------|------------------|------------------|

                                                                
Eb :--------------------|--------------------|------------------|
Bb :--------------------|-----11----*--------|------------------|
Gb :12---12---12---13---|12----*---12---10---|10---10---8---8---|
Db :-*------------------|--------------------|------------------|
Ab :--------------------|--------------------|------------------|
Db :--------------------|--------------------|------------------|

                                                                
Eb :------------------|--------------------|--------------------|
Bb :------------------|--------------------|-----11----*--------|
Gb :8---8----*--------|12---12---12---13---|12----*---12---10---|
Db :--------10---10---|-*------------------|--------------------|
Ab :------------------|--------------------|--------------------|
Db :------------------|--------------------|--------------------|

                                                              
Eb :------------------|------------------|--------------------|
Bb :------------------|------------------|--------------------|
Gb :10---10---8---8---|8---8----*--------|12---12---12---13---|
Db :------------------|--------10---10---|-*------------------|
Ab :------------------|------------------|--------------------|
Db :------------------|------------------|--------------------|

                                                              
Eb :--------------------|------------------|------------------|
Bb :-----11----*--------|------------------|------------------|
Gb :12----*---12---10---|10---10---8---8---|8---8----*--------|
Db :--------------------|------------------|--------10---10---|
Ab :--------------------|------------------|------------------|
Db :--------------------|------------------|------------------|

                                                                
Eb :--------------------|--------------------|------------------|
Bb :--------------------|-----11----*--------|------------------|
Gb :12---12---12---13---|12----*---12---10---|10---10---8---8---|
Db :-*------------------|--------------------|------------------|
Ab :--------------------|--------------------|------------------|
Db :--------------------|--------------------|------------------|


    slowly Fades Out                      
Eb :------------------|
Bb :------------------|
Gb :8---8----*--------|
Db :--------10---10---|
Ab :------------------|
Db :------------------|



    (06:01) Acoustic Guitar (Slowly Fades In)
                                                         
Eb :-13-----13-----13-----13----|-13-----13-----13-----13----|
Bb :-13-----13-----13-----13----|-13-----11-----11-----11----|
Gb :-10-----10-----10-----10----|-10-----10-----10-----10----|
Db :(10)---(10)---(10)---(10)---|(10)---(13)---(13)---(13)---|
Ab :----------------------------|----------------------------|
Db :----------------------------|----------------------------|

                                                                          
Eb :11---11---11---11---|11----x----x----x---|-13-----13-----13-----13----|
Bb :-x----x----x----x---|-x---13---13---13---|--x------x------x------x----|
Gb :10---10---10---10---|10---10---10---10---|-10-----10-----10-----10----|
Db :13---13---13---13---|13---10---10---10---|(10)---(10)---(10)---(10)---|
Ab :--------------------|--------------------|----------------------------|
Db :--------------------|--------------------|----------------------------|

                                                                          
Eb :-13----(11)---(11)---(11)---|11---11---11---11---|11----x----x----x---|
Bb :--x-----13-----13-----13----|-x----x----x----x---|-x---13---13---13---|
Gb :-10-----10-----10-----10----|10---10---10---10---|10---10---10---10---|
Db :(10)-----x------x------x----|13---13---13---13---|13---10---10---10---|
Ab :----------------------------|--------------------|--------------------|
Db :----------------------------|--------------------|--------------------|

                                                             
Eb :-13-----13-----13-----13----|-13-----13-----13-----13----|
Bb :-13-----13-----13-----13----|-13-----11-----11-----11----|
Gb :-10-----10-----10-----10----|-10-----10-----10-----10----|
Db :(10)---(10)---(10)---(10)---|(10)---(13)---(13)---(13)---|
Ab :----------------------------|----------------------------|
Db :----------------------------|----------------------------|

                                                                          
Eb :11---11---11---11---|11----x----x----x---|-13-----13-----13-----13----|
Bb :-x----x----x----x---|-x---13---13---13---|--x------x------x------x----|
Gb :10---10---10---10---|10---10---10---10---|-10-----10-----10-----10----|
Db :13---13---13---13---|13---10---10---10---|(10)---(10)---(10)---(10)---|
Ab :--------------------|--------------------|----------------------------|
Db :--------------------|--------------------|----------------------------|

                                                                          
Eb :-13----(11)---(11)---(11)---|11---11---11---11---|11----x----x----x---|
Bb :--x-----13-----13-----13----|-x----x----x----x---|-x---13---13---13---|
Gb :-10-----10-----10-----10----|10---10---10---10---|10---10---10---10---|
Db :(10)-----x------x------x----|13---13---13---13---|13---10---10---10---|
Ab :----------------------------|--------------------|--------------------|
Db :----------------------------|--------------------|--------------------|

                                                             
Eb :-13-----13-----13-----13----|-13-----13-----13-----13----|
Bb :-13-----13-----13-----13----|-13-----11-----11-----11----|
Gb :-10-----10-----10-----10----|-10-----10-----10-----10----|
Db :(10)---(10)---(10)---(10)---|(10)---(13)---(13)---(13)---|
Ab :----------------------------|----------------------------|
Db :----------------------------|----------------------------|

                                                                          
Eb :11---11---11---11---|11----x----x----x---|-13-----13-----13-----13----|
Bb :-x----x----x----x---|-x---13---13---13---|--x------x------x------x----|
Gb :10---10---10---10---|10---10---10---10---|-10-----10-----10-----10----|
Db :13---13---13---13---|13---10---10---10---|(10)---(10)---(10)---(10)---|
Ab :--------------------|--------------------|----------------------------|
Db :--------------------|--------------------|----------------------------|

                                                     
Eb :-13----(11)---(11)---(11)---|11---11---11---11---|
Bb :--x-----13-----13-----13----|-x----x----x----x---|
Gb :-10-----10-----10-----10----|10---10---10---10---|
Db :(10)-----x------x------x----|13---13---13---13---|
Ab :----------------------------|--------------------|
Db :----------------------------|--------------------|



(06:25) Acoustic Guitar Fades OUt, Birds sounds wander through the song 
and the outro melody slowly appears
                        

The Outro is played with clean Guitar, some nice echo-delay FX

                                      	  (06:30) Outro
Eb :11--x--x--x---*-----|----------------|--------------------|
Bb :-x-13-13-13---*-----|----------------|--------------------|
Gb :10-10-10-10---*-----|----------------|--------------------|
Db :13-10-10-10---*-----|---5------------|10---10---10---10---|
Ab :--------------*-----|----------------|--------------------|
Db :--------------*-----|----------------|--------------------|

                                                           
Eb :--------------------|-----------------|----------------|
Bb :--------------------|-----------------|----------------|
Gb :--------------------|-----------------|----------------|
Db :10---10---10---10---|10---8-------8---|----8-------8---|
Ab :--------------------|-----------------|----------------|
Db :--------------------|-----------------|----------------|

                                                            
Eb :------------------|------------------|------------------|
Bb :------------------|------------------|------------------|
Gb :------------------|------------------|------------------|
Db :-------13-------13|-------10---12----|---12-------12----|
Ab :------------------|------------------|------------------|
Db :------------------|------------------|------------------|

                                                               
Eb :------------------|-------------------|--------------------|
Bb :------------------|-------------------|--------------------|
Gb :------------------|-------------------|--------------------|
Db :---12------8---10-|--10---10---10---8-|--12---12---12---12-|
Ab :------------------|-------------------|--------------------|
Db :------------------|-------------------|--------------------|

                                                                  
Eb :--------------------|--------------------|--------------------|
Bb :--------------------|--------------------|--------------------|
Gb :--------------------|--------------------|--------------------|
Db :--12---12---12---12-|--10---13---13---13-|--13---13---13---12-|
Ab :--------------------|--------------------|--------------------|
Db :--------------------|--------------------|--------------------|

                                                            
Eb :----------------|--------------------|------------------|
Bb :----------------|--------------------|------------------|
Gb :----------------|--------------------|------------------|
Db :--8---8---8---8-|--10---10---10---10-|--10---10---8---5-|
Ab :----------------|--------------------|------------------|
Db :----------------|--------------------|------------------|

                                                                       
Eb :----------------|----------------|----------------|----------------|
Bb :----------------|----------------|----------------|----------------|
Gb :----------------|----------------|----------------|----------------|
Db :--5---5---5---5-|--5---1---1---1-|--1---1---1---1-|--3---0---0---0-|
Ab :----------------|----------------|----------------|----------------|
Db :----------------|----------------|----------------|----------------|

                                                                       
Eb :----------------|----------------|----------------|----------------|
Bb :----------------|----------------|----------------|----------------|
Gb :----------------|----------------|----------------|----------------|
Db :--0---0---0---1-|----------------|----------------|----------------|
Ab :----------------|--3---3---3---3-|--3---3---3---3-|--3---3---3---3-|
Db :----------------|----------------|----------------|----------------|

                                                                 
Eb :--------------------|--------------------|-------------------|
Bb :--------------------|--------------------|-------------------|
Gb :--------------------|--------------------|-------------------|
Db :--10---10---10---10-|--10---10---10---10-|--8---12---12---12-|
Ab :---3----3----3----3-|--------------------|-------------------|
Db :--------------------|--------------------|-------------------|

                                                                
Eb :--------------------|--------------------|------------------|
Bb :--------------------|--------------------|------------------|
Gb :--------------------|--------------------|------------------|
Db :--12---12---10---13-|--13---13---13---13-|--13---12---8---8-|
Ab :--------------------|--------------------|------------------|
Db :--------------------|--------------------|------------------|

                                                            
Eb :----------------|-------------------|-------------------|
Bb :----------------|-------------------|-------------------|
Gb :----------------|-------------------|-------------------|
Db :--8---8---8---8-|--8---10---10---10-|--10---10---10---8-|
Ab :----------------|-------------------|-------------------|
Db :----------------|-------------------|-------------------|

                                                                       
Eb :----------------|----------------|----------------|----------------|
Bb :----------------|----------------|----------------|----------------|
Gb :----------------|----------------|----------------|----------------|
Db :--5---5---5---5-|--5---5---1---1-|--1---1---1---1-|--1---3---0---0-|
Ab :----------------|----------------|----------------|----------------|
Db :----------------|----------------|----------------|----------------|

                                                                       
Eb :----------------|----------------|----------------|----------------|
Bb :----------------|----------------|----------------|----------------|
Gb :----------------|----------------|----------------|----------------|
Db :--0---0---0---0-|--1-------------|----------------|----------------|
Ab :----------------|------3---3---3-|--3---3---3---3-|--3---3---3---3-|
Db :----------------|----------------|----------------|----------------|

                                                                
Eb :-------------------|--------------------|-------------------|
Bb :-------------------|--------------------|-------------------|
Gb :-------------------|--------------------|-------------------|
Db :------10---10---10-|--10---10---10---10-|--10---8---12---12-|
Ab :--3----3----3----3-|---3----------------|-------------------|
Db :-------------------|--------------------|-------------------|

                                                                 
Eb :--------------------|--------------------|-------------------|
Bb :--------------------|--------------------|-------------------|
Gb :--------------------|--------------------|-------------------|
Db :--12---12---12---10-|--13---13---13---13-|--13---13---12---8-|
Ab :--------------------|--------------------|-------------------|
Db :--------------------|--------------------|-------------------|

                                                            
Eb :----------------|------------------|--------------------|
Bb :----------------|------------------|--------------------|
Gb :----------------|------------------|--------------------|
Db :--8---8---8---8-|--8---8---10---10-|--10---10---10---10-|
Ab :----------------|------------------|--------------------|
Db :----------------|------------------|--------------------|

                                                                       
Eb :----------------|----------------|----------------|----------------|
Bb :----------------|----------------|----------------|----------------|
Gb :----------------|----------------|----------------|----------------|
Db :--8---5---5---5-|--5---5---5---1-|--1---1---1---1-|--1---1---3---0-|
Ab :----------------|----------------|----------------|----------------|
Db :----------------|----------------|----------------|----------------|

                                                                       
Eb :----------------|----------------|----------------|----------------|
Bb :----------------|----------------|----------------|----------------|
Gb :----------------|----------------|----------------|----------------|
Db :--0---0---0---0-|--0---1---------|----------------|----------------|
Ab :----------------|----------3---3-|--3---3---3---3-|--3---3---3---3-|
Db :----------------|----------------|----------------|----------------|

                    The End of first Track, Thank You.              
Eb :----------------|*---------------|----------------|
Bb :----------------|*---------------|----------------|
Gb :----------------|*---------------|----------------|
Db :----------------|*---------------|----------------|
Ab :--3---3---3---3-|*---------------|----------------|
Db :----------------|*---------------|----------------|






=================================
=================================
=================================
=================================


SECOND INSTRUMENT TRACK: GUITAR



=================================
=================================
=================================
=================================






    (00:00) Distortion Guitar with Sustain FX

Eb :--------------------------------|----------------|----------------|
Bb :1-------------------------------|----------------|3---------------|
Gb :--------------------------------|----------------|----------------|
Db :--------------------------------|----------------|----------------|
Ab :--------------------------------|----------------|----------------|
Db :--------------------------------|----------------|----------------|

                                                                       
Eb :----------------|----------------|----------------|----------------|
Bb :----------------|4---------------|------3---------|----------------|
Gb :----------------|----------------|----------------|3---------------|
Db :----------------|----------------|----------------|----------------|
Ab :----------------|----------------|----------------|----------------|
Db :----------------|----------------|----------------|----------------|

                    
Eb :----------------|
Bb :------4---------|
Gb :----------------|
Db :----------------|
Ab :----------------|
Db :----------------|

                                                                       
Eb :----------------|----------------|----------------|----------------|
Bb :1---------------|----------------|3---------------|----------------|
Gb :*---------------|----------------|----------------|----------------|
Db :----------------|----------------|----------------|----------------|
Ab :----------------|----------------|----------------|----------------|
Db :----------------|----------------|----------------|----------------|

                                                                       
Eb :----------------|----------------|----------------|----------------|
Bb :4---------------|------3---------|----------------|------4---------|
Gb :----------------|----------------|3---------------|----------------|
Db :----------------|----------------|----------------|----------------|
Ab :----------------|----------------|----------------|----------------|
Db :----------------|----------------|----------------|----------------|

                                                                       
Eb :----------------|----------------|----------------|----------------|
Bb :1---------------|----------------|3---------------|----------------|
Gb :*---------------|----------------|----------------|----------------|
Db :----------------|----------------|----------------|----------------|
Ab :----------------|----------------|----------------|----------------|
Db :----------------|----------------|----------------|----------------|

                                                                       
Eb :----------------|----------------|----------------|----------------|
Bb :4---------------|------3---------|----------------|------4---------|
Gb :----------------|----------------|3---------------|----------------|
Db :----------------|----------------|----------------|----------------|
Ab :----------------|----------------|----------------|----------------|
Db :----------------|----------------|----------------|----------------|

                                                                       
Eb :----------------|----------------|----------------|----------------|
Bb :1---------------|----------------|3---------------|----------------|
Gb :*---------------|----------------|----------------|----------------|
Db :----------------|----------------|----------------|----------------|
Ab :----------------|----------------|----------------|----------------|
Db :----------------|----------------|----------------|----------------|

                                                                       
Eb :----------------|----------------|----------------|----------------|
Bb :4---------------|------3---------|----------------|------4---------|
Gb :----------------|----------------|3---------------|----------------|
Db :----------------|----------------|----------------|----------------|
Ab :----------------|----------------|----------------|----------------|
Db :----------------|----------------|----------------|----------------|

     

(00:49) Clean Guitar, following bassline an octave higher.
                                                             
Eb :-*------------------|--------------------|--------------------|
Bb :-*------------------|--------------------|--------------------|
Gb :-*------------------|--------------------|--------------------|
Db :10---10---10---10---|12---12---12---12---|13---13---13---13---|
Ab :--------------------|--------------------|--------------------|
Db :--------------------|--------------------|--------------------|

                                                              
Eb :----------------|--------------------|--------------------|
Bb :----------------|--------------------|--------------------|
Gb :----------------|--------------------|--------------------|
Db :8---8---8---8---|10---10---10---10---|-*------------------|
Ab :----------------|--------------------|10---10---10---10---|
Db :----------------|--------------------|--------------------|

                                     
Eb :----------------|----------------|
Bb :----------------|----------------|
Gb :----------------|----------------|
Db :----------------|*---------------|
Ab :6---6---6---6---|5---5---5---5---|
Db :----------------|----------------|

                                                                  
Eb :--------------------|--------------------|--------------------|
Bb :--------------------|--------------------|--------------------|
Gb :--------------------|--------------------|--------------------|
Db :10---10---10---10---|12---12---12---12---|13---13---13---13---|
Ab :--------------------|--------------------|--------------------|
Db :--------------------|--------------------|--------------------|

                                                              
Eb :----------------|--------------------|--------------------|
Bb :----------------|--------------------|--------------------|
Gb :----------------|--------------------|--------------------|
Db :8---8---8---8---|10---10---10---10---|-*------------------|
Ab :----------------|--------------------|10---10---10---10---|
Db :----------------|--------------------|--------------------|

                                     
Eb :----------------|----------------|
Bb :----------------|----------------|
Gb :----------------|----------------|
Db :----------------|*---------------|
Ab :6---6---6---6---|5---5---5---5---|
Db :----------------|----------------|

                                                                  
Eb :--------------------|--------------------|--------------------|
Bb :--------------------|--------------------|--------------------|
Gb :--------------------|--------------------|--------------------|
Db :10---10---10---10---|12---12---12---12---|13---13---13---13---|
Ab :--------------------|--------------------|--------------------|
Db :--------------------|--------------------|--------------------|

                                                              
Eb :----------------|--------------------|--------------------|
Bb :----------------|--------------------|--------------------|
Gb :----------------|--------------------|--------------------|
Db :8---8---8---8---|10---10---10---10---|-*------------------|
Ab :----------------|--------------------|10---10---10---10---|
Db :----------------|--------------------|--------------------|

                                     
Eb :----------------|----------------|
Bb :----------------|----------------|
Gb :----------------|----------------|
Db :----------------|*---------------|
Ab :6---6---6---6---|5---5---5---5---|
Db :----------------|----------------|

                                                                  
Eb :--------------------|--------------------|--------------------|
Bb :--------------------|--------------------|--------------------|
Gb :--------------------|--------------------|--------------------|
Db :10---10---10---10---|12---12---12---12---|13---13---13---13---|
Ab :--------------------|--------------------|--------------------|
Db :--------------------|--------------------|--------------------|

                                                              
Eb :----------------|--------------------|--------------------|
Bb :----------------|--------------------|--------------------|
Gb :----------------|--------------------|--------------------|
Db :8---8---8---8---|10---10---10---10---|-*------------------|
Ab :----------------|--------------------|10---10---10---10---|
Db :----------------|--------------------|--------------------|

                                     
Eb :----------------|----------------|
Bb :----------------|----------------|
Gb :----------------|----------------|
Db :----------------|*---------------|
Ab :6---6---6---6---|5---5---5---5---|
Db :----------------|----------------|

                   


    (01:38) Clean Guitar
                                         
Eb :--------------------|--------------------|-------------------|
Bb :--------------------|--------------------|-------------------|
Gb :--------------------|--------------------|-------------------|
Db :10---10---10---10---|10---10---10---10---|----13---13---13---|
Ab :--------------------|--------------------|-------------------|
Db :--------------------|--------------------|-------------------|

                                                                  
Eb :--------------------|--------------------|--------------------|
Bb :--------------------|--------------------|--------------------|
Gb :--------------------|--------------------|--------------------|
Db :13---13---13---13---|13---10---10---10---|10---10---10---10---|
Ab :--------------------|--------------------|--------------------|
Db :--------------------|--------------------|--------------------|

                                                                 
Eb :-------------------|--------------------|--------------------|
Bb :-------------------|--------------------|--------------------|
Gb :-------------------|--------------------|--------------------|
Db :----13---13---13---|13---13---13---13---|13---10---10---10---|
Ab :-------------------|--------------------|--------------------|
Db :-------------------|--------------------|--------------------|

                                                                 
Eb :--------------------|-------------------|--------------------|
Bb :--------------------|-------------------|--------------------|
Gb :--------------------|-------------------|--------------------|
Db :10---10---10---10---|----13---13---13---|13---13---13---13---|
Ab :--------------------|-------------------|--------------------|
Db :--------------------|-------------------|--------------------|

                                                                 
Eb :--------------------|--------------------|-------------------|
Bb :--------------------|--------------------|-------------------|
Gb :--------------------|--------------------|-------------------|
Db :13---10---10---10---|10---10---10---10---|----13---13---13---|
Ab :--------------------|--------------------|-------------------|
Db :--------------------|--------------------|-------------------|

                        
Eb :--------------------|
Bb :--------------------|
Gb :--------------------|
Db :13---13---13---13---|
Ab :--------------------|
Db :--------------------|

                                                                 
Eb :--------------------|--------------------|-------------------|
Bb :--------------------|--------------------|-------------------|
Gb :--------------------|--------------------|-------------------|
Db :13---10---10---10---|10---10---10---10---|----13---13---13---|
Ab :--------------------|--------------------|-------------------|
Db :--------------------|--------------------|-------------------|

                                                                  
Eb :--------------------|--------------------|--------------------|
Bb :--------------------|--------------------|--------------------|
Gb :--------------------|--------------------|--------------------|
Db :13---13---13---13---|13---10---10---10---|10---10---10---10---|
Ab :--------------------|--------------------|--------------------|
Db :--------------------|--------------------|--------------------|

                                                                 
Eb :-------------------|--------------------|--------------------|
Bb :-------------------|--------------------|--------------------|
Gb :-------------------|--------------------|--------------------|
Db :----13---13---13---|13---13---13---13---|13---10---10---10---|
Ab :-------------------|--------------------|--------------------|
Db :-------------------|--------------------|--------------------|

                                                                 
Eb :--------------------|-------------------|--------------------|
Bb :--------------------|-------------------|--------------------|
Gb :--------------------|-------------------|--------------------|
Db :10---10---10---10---|----13---13---13---|13---13---13---13---|
Ab :--------------------|-------------------|--------------------|
Db :--------------------|-------------------|--------------------|

                                                                 
Eb :--------------------|--------------------|-------------------|
Bb :--------------------|--------------------|-------------------|
Gb :--------------------|--------------------|-------------------|
Db :13---10---10---10---|10---10---10---10---|----13---13---13---|
Ab :--------------------|--------------------|-------------------|
Db :--------------------|--------------------|-------------------|

                        
Eb :--------------------|
Bb :--------------------|
Gb :--------------------|
Db :13---13---13---13---|
Ab :--------------------|
Db :--------------------|

    
(02:29) Overdriven Guitar, I have the impression these are not
really power chords, but they sound good in the midi mix.
                                                           
Eb :------------------|---------------------|------------------|
Bb :------------------|---------------------|------------------|
Gb :------------------|---------------------|------------------|
Db :10-------10-------|12---12-12-12-12-----|13-------13-------|
Ab :10-------10-------|12---12-12-12-12-----|13-------13-------|
Db :10-------10-------|12---12-12-12-12-----|13-------13-------|

                                                           
Eb :----------------|---------------------|----------------|
Bb :----------------|---------------------|----------------|
Gb :----------------|---------------------|----------------|
Db :8---8-8-8-8-----|10---10-10-10---10---|5-----5---5-5-5-|
Ab :8---8-8-8-8-----|10---10-10-10---10---|5-----5---5-5-5-|
Db :8---8-8-8-8-----|10---10-10-10---10---|5-----5---5-5-5-|

                                       


                                      Rest here, Bass goes solo
Eb :----------------|----------------|*---------------|----------------|
Bb :----------------|----------------|*---------------|----------------|
Gb :----------------|----------------|*---------------|----------------|
Db :1---1-1-1---1---|0---------------|*---------------|----------------|
Ab :1---1-1-1---1---|0---------------|*---------------|----------------|
Db :1---1-1-1---1---|0---------------|*---------------|----------------|

                                                                       
Eb :----------------|----------------|----------------|----------------|
Bb :----------------|----------------|----------------|----------------|
Gb :----------------|----------------|----------------|----------------|
Db :----------------|----------------|----------------|----------------|
Ab :----------------|----------------|----------------|----------------|
Db :----------------|----------------|----------------|----------------|

                                       

                                     (02:54) Overdriven Guitar, Plays
tons of times

Eb :----------------|----------------|--------------------|
Bb :----------------|----------------|--------------------|
Gb :----------------|----------------|--------------------|
Db :----------------|----------------|10---10---10---10---|
Ab :----------------|----------------|10---10---10---10---|
Db :----------------|----------------|10---10---10---10---|

                                                                  
Eb :--------------------|--------------------|--------------------|
Bb :--------------------|--------------------|--------------------|
Gb :--------------------|--------------------|--------------------|
Db :10---10---10---10---|10---10---10---10---|10---10---10---10---|
Ab :10---10---10---10---|10---10---10---10---|10---10---10---10---|
Db :10---10---10---10---|10---10---10---10---|10---10---10---10---|

                                                                  
Eb :--------------------|--------------------|--------------------|
Bb :--------------------|--------------------|--------------------|
Gb :--------------------|--------------------|--------------------|
Db :10---10---10---10---|10---10---10---10---|10---10---10---10---|
Ab :10---10---10---10---|10---10---10---10---|10---10---10---10---|
Db :10---10---10---10---|10---10---10---10---|10---10---10---10---|

                                                                  
Eb :--------------------|--------------------|--------------------|
Bb :--------------------|--------------------|--------------------|
Gb :--------------------|--------------------|--------------------|
Db :10---10---10---10---|10---10---10---10---|10---10---10---10---|
Ab :10---10---10---10---|10---10---10---10---|10---10---10---10---|
Db :10---10---10---10---|10---10---10---10---|10---10---10---10---|

                                                                  
Eb :--------------------|--------------------|--------------------|
Bb :--------------------|--------------------|--------------------|
Gb :--------------------|--------------------|--------------------|
Db :10---10---10---10---|10---10---10---10---|10---10---10---10---|
Ab :10---10---10---10---|10---10---10---10---|10---10---10---10---|
Db :10---10---10---10---|10---10---10---10---|10---10---10---10---|

                                                                  
Eb :--------------------|--------------------|--------------------|
Bb :--------------------|--------------------|--------------------|
Gb :--------------------|--------------------|--------------------|
Db :10---10---10---10---|10---10---10---10---|10---10---10---10---|
Ab :10---10---10---10---|10---10---10---10---|10---10---10---10---|
Db :10---10---10---10---|10---10---10---10---|10---10---10---10---|

                                                                  
Eb :--------------------|--------------------|--------------------|
Bb :--------------------|--------------------|--------------------|
Gb :--------------------|--------------------|--------------------|
Db :10---10---10---10---|10---10---10---10---|10---10---10---10---|
Ab :10---10---10---10---|10---10---10---10---|10---10---10---10---|
Db :10---10---10---10---|10---10---10---10---|10---10---10---10---|

                                                                  
Eb :--------------------|--------------------|--------------------|
Bb :--------------------|--------------------|--------------------|
Gb :--------------------|--------------------|--------------------|
Db :10---10---10---10---|10---10---10---10---|10---10---10---10---|
Ab :10---10---10---10---|10---10---10---10---|10---10---10---10---|
Db :10---10---10---10---|10---10---10---10---|10---10---10---10---|

                                             
Eb :--------------------|--------------------|
Bb :--------------------|--------------------|
Gb :--------------------|--------------------|
Db :10---10---10---10---|10---10---10---10---|
Ab :10---10---10---10---|10---10---10---10---|
Db :10---10---10---10---|10---10---10---10---|

                                                                  
Eb :--------------------|--------------------|--------------------|
Bb :--------------------|--------------------|--------------------|
Gb :--------------------|--------------------|--------------------|
Db :10---10---10---10---|10---10---10---10---|10---10---10---10---|
Ab :10---10---10---10---|10---10---10---10---|10---10---10---10---|
Db :10---10---10---10---|10---10---10---10---|10---10---10---10---|

                                                                  
Eb :--------------------|--------------------|--------------------|
Bb :--------------------|--------------------|--------------------|
Gb :--------------------|--------------------|--------------------|
Db :10---10---10---10---|10---10---10---10---|10---10---10---10---|
Ab :10---10---10---10---|10---10---10---10---|10---10---10---10---|
Db :10---10---10---10---|10---10---10---10---|10---10---10---10---|

                                                                  
Eb :--------------------|--------------------|--------------------|
Bb :--------------------|--------------------|--------------------|
Gb :--------------------|--------------------|--------------------|
Db :10---10---10---10---|10---10---10---10---|10---10---10---10---|
Ab :10---10---10---10---|10---10---10---10---|10---10---10---10---|
Db :10---10---10---10---|10---10---10---10---|10---10---10---10---|

                                                                  
Eb :--------------------|--------------------|--------------------|
Bb :--------------------|--------------------|--------------------|
Gb :--------------------|--------------------|--------------------|
Db :10---10---10---10---|10---10---10---10---|10---10---10---10---|
Ab :10---10---10---10---|10---10---10---10---|10---10---10---10---|
Db :10---10---10---10---|10---10---10---10---|10---10---10---10---|

                                                                  
Eb :--------------------|--------------------|--------------------|
Bb :--------------------|--------------------|--------------------|
Gb :--------------------|--------------------|--------------------|
Db :10---10---10---10---|10---10---10---10---|10---10---10---10---|
Ab :10---10---10---10---|10---10---10---10---|10---10---10---10---|
Db :10---10---10---10---|10---10---10---10---|10---10---10---10---|

                        
Eb :--------------------|
Bb :--------------------|
Gb :--------------------|
Db :10---10---10---10---|
Ab :10---10---10---10---|
Db :10---10---10---10---|



    (03:36) Distortion Guitar, follows Bassline
                                                        
Eb :--------------------|------------------|----------------|
Bb :--------------------|------------------|----------------|
Gb :--------------------|------------------|----------------|
Db :--------------------|------------------|----------------|
Ab :10---10---11---11---|8---8---10---10---|6---6---8---8---|
Db :--------------------|------------------|----------------|

                                                            
Eb :----------------|--------------------|------------------|
Bb :----------------|--------------------|------------------|
Gb :----------------|--------------------|------------------|
Db :----------------|--------------------|------------------|
Ab :5---5---3---3---|10---10---11---11---|8---8---10---10---|
Db :----------------|--------------------|------------------|

                                                          
Eb :----------------|----------------|--------------------|
Bb :----------------|----------------|--------------------|
Gb :----------------|----------------|--------------------|
Db :----------------|----------------|--------------------|
Ab :6---6---8---8---|5---5---3---3---|10---10---11---11---|
Db :----------------|----------------|--------------------|

                                                        
Eb :------------------|----------------|----------------|
Bb :------------------|----------------|----------------|
Gb :------------------|----------------|----------------|
Db :------------------|----------------|----------------|
Ab :8---8---10---10---|6---6---8---8---|5---5---3---3---|
Db :------------------|----------------|----------------|

                                                            
Eb :--------------------|------------------|----------------|
Bb :--------------------|------------------|----------------|
Gb :--------------------|------------------|----------------|
Db :--------------------|------------------|----------------|
Ab :10---10---11---11---|8---8---10---10---|6---6---8---8---|
Db :--------------------|------------------|----------------|

                                                            
Eb :----------------|--------------------|------------------|
Bb :----------------|--------------------|------------------|
Gb :----------------|--------------------|------------------|
Db :----------------|--------------------|------------------|
Ab :5---5---3---3---|10---10---11---11---|8---8---10---10---|
Db :----------------|--------------------|------------------|

                                                          
Eb :----------------|----------------|--------------------|
Bb :----------------|----------------|--------------------|
Gb :----------------|----------------|--------------------|
Db :----------------|----------------|--------------------|
Ab :6---6---8---8---|5---5---3---3---|10---10---11---11---|
Db :----------------|----------------|--------------------|

                                                        
Eb :------------------|----------------|----------------|
Bb :------------------|----------------|----------------|
Gb :------------------|----------------|----------------|
Db :------------------|----------------|----------------|
Ab :8---8---10---10---|6---6---8---8---|5---5---3---3---|
Db :------------------|----------------|----------------|

                                                            
Eb :--------------------|------------------|----------------|
Bb :--------------------|------------------|----------------|
Gb :--------------------|------------------|----------------|
Db :--------------------|------------------|----------------|
Ab :10---10---11---11---|8---8---10---10---|6---6---8---8---|
Db :--------------------|------------------|----------------|

                                                            
Eb :----------------|--------------------|------------------|
Bb :----------------|--------------------|------------------|
Gb :----------------|--------------------|------------------|
Db :----------------|--------------------|------------------|
Ab :5---5---3---3---|10---10---11---11---|8---8---10---10---|
Db :----------------|--------------------|------------------|

                                        


                                      (04:08) Clean Guitar

Eb :----------------|----------------|-*------------------|
Bb :----------------|----------------|-*------------------|
Gb :----------------|----------------|12---12---13---13---|
Db :----------------|----------------|-*------------------|
Ab :6---6---8---8---|5---5---3---1---|-*------------------|
Db :----------------|----------------|-*------------------|

                                                            
Eb :--------------------|------------------|----------------|
Bb :--------------------|------------------|----------------|
Gb :10---10---12---12---|8---8---10---10---|7---7---5---5---|
Db :--------------------|------------------|----------------|
Ab :--------------------|------------------|----------------|
Db :--------------------|------------------|----------------|

                                                                
Eb :--------------------|--------------------|------------------|
Bb :--------------------|--------------------|------------------|
Gb :12---12---13---13---|10---10---12---12---|8---8---10---10---|
Db :--------------------|--------------------|------------------|
Ab :--------------------|--------------------|------------------|
Db :--------------------|--------------------|------------------|

                                                              
Eb :----------------|--------------------|--------------------|
Bb :----------------|--------------------|--------------------|
Gb :7---7---5---5---|12---12---13---13---|10---10---12---12---|
Db :----------------|--------------------|--------------------|
Ab :----------------|--------------------|--------------------|
Db :----------------|--------------------|--------------------|

                                                            
Eb :------------------|----------------|--------------------|
Bb :------------------|----------------|--------------------|
Gb :8---8---10---10---|7---7---5---5---|12---12---13---13---|
Db :------------------|----------------|--------------------|
Ab :------------------|----------------|--------------------|
Db :------------------|----------------|--------------------|

                                                            
Eb :--------------------|------------------|----------------|
Bb :--------------------|------------------|----------------|
Gb :10---10---12---12---|8---8---10---10---|7---7---5---5---|
Db :--------------------|------------------|----------------|
Ab :--------------------|------------------|----------------|
Db :--------------------|------------------|----------------|



   (04:24) Loud Distortion Guitar                                                                  
Eb :--------------------|--------------------|--------------------|
Bb :--------------------|--------------------|--------------------|
Gb :--------------------|--------------------|--------------------|
Db :10---10---10---10---|10---10---10---10---|10---10---10---10---|
Ab :-x----x----x----x---|-x----x----x----x---|-x----x----x----x---|
Db :10---10---10---10---|10---10---10---10---|10---10---10---10---|

                                                                  
Eb :--------------------|--------------------|--------------------|
Bb :--------------------|--------------------|--------------------|
Gb :--------------------|--------------------|--------------------|
Db :10---10---10---10---|10---10---10---10---|10---10---10---10---|
Ab :-x----x----x----x---|-x----x----x----x---|-x----x----x----x---|
Db :10---10---10---10---|10---10---10---10---|10---10---10---10---|

                                             
Eb :--------------------|--------------------|
Bb :--------------------|--------------------|
Gb :--------------------|--------------------|
Db :10---10---10---10---|10---10---10---10---|
Ab :-x----x----x----x---|-x----x----x----x---|
Db :10---10---10---10---|10---10---10---10---|

                                                                  
Eb :--------------------|--------------------|--------------------|
Bb :--------------------|--------------------|--------------------|
Gb :--------------------|--------------------|--------------------|
Db :10---10---10---10---|10---10---10---10---|10---10---10---10---|
Ab :-x----x----x----x---|-x----x----x----x---|-x----x----x----x---|
Db :10---10---10---10---|10---10---10---10---|10---10---10---10---|

                                                                  
Eb :--------------------|--------------------|--------------------|
Bb :--------------------|--------------------|--------------------|
Gb :--------------------|--------------------|--------------------|
Db :10---10---10---10---|10---10---10---10---|10---10---10---10---|
Ab :-x----x----x----x---|-x----x----x----x---|-x----x----x----x---|
Db :10---10---10---10---|10---10---10---10---|10---10---10---10---|

                                                                  
Eb :--------------------|--------------------|--------------------|
Bb :--------------------|--------------------|--------------------|
Gb :--------------------|--------------------|--------------------|
Db :10---10---10---10---|10---10---10---10---|10---10---10---10---|
Ab :-x----x----x----x---|-x----x----x----x---|-x----x----x----x---|
Db :10---10---10---10---|10---10---10---10---|10---10---10---10---|

                                                                  
Eb :--------------------|--------------------|--------------------|
Bb :--------------------|--------------------|--------------------|
Gb :--------------------|--------------------|--------------------|
Db :10---10---10---10---|10---10---10---10---|10---10---10---10---|
Ab :-x----x----x----x---|-x----x----x----x---|-x----x----x----x---|
Db :10---10---10---10---|10---10---10---10---|10---10---10---10---|

                                                                  
Eb :--------------------|--------------------|--------------------|
Bb :--------------------|--------------------|--------------------|
Gb :--------------------|--------------------|--------------------|
Db :10---10---10---10---|10---10---10---10---|10---10---10---10---|
Ab :-x----x----x----x---|-x----x----x----x---|-x----x----x----x---|
Db :10---10---10---10---|10---10---10---10---|10---10---10---10---|

                                                                  
Eb :--------------------|--------------------|--------------------|
Bb :--------------------|--------------------|--------------------|
Gb :--------------------|--------------------|--------------------|
Db :10---10---10---10---|10---10---10---10---|10---10---10---10---|
Ab :-x----x----x----x---|-x----x----x----x---|-x----x----x----x---|
Db :10---10---10---10---|10---10---10---10---|10---10---10---10---|

                                                                  
Eb :--------------------|--------------------|--------------------|
Bb :--------------------|--------------------|--------------------|
Gb :--------------------|--------------------|--------------------|
Db :10---10---10---10---|10---10---10---10---|10---10---10---10---|
Ab :-x----x----x----x---|-x----x----x----x---|-x----x----x----x---|
Db :10---10---10---10---|10---10---10---10---|10---10---10---10---|

                                                                  
Eb :--------------------|--------------------|--------------------|
Bb :--------------------|--------------------|--------------------|
Gb :--------------------|--------------------|--------------------|
Db :10---10---10---10---|10---10---10---10---|10---10---10---10---|
Ab :-x----x----x----x---|-x----x----x----x---|-x----x----x----x---|
Db :10---10---10---10---|10---10---10---10---|10---10---10---10---|



(04:56) Clean Guitar, Play this many times while



E  :*---------------|----------------|----------------|----------------|
B  :6---6---6---6---|6---6---6---6---|4---4---4---4---|4---4---4---4---|
G  :*---------------|----------------|----------------|----------------|
D  :*---------------|----------------|----------------|----------------|
A  :*---------------|----------------|----------------|----------------|
E  :*---------------|----------------|----------------|----------------|

E  :----------------|----------------|1---1---1---1---|----------------|
B  :6---6---6---6---|6---6---6---6---|4---4---4---4---|1---1---1---1---|
G  :----------------|----------------|----------------|5---5---5---5---|
D  :----------------|----------------|----------------|----------------|
A  :----------------|----------------|----------------|----------------|
E  :----------------|----------------|----------------|----------------|

E  :----------------|----------------|----------------|----------------|
B  :6---6---6---6---|6---6---6---6---|4---4---4---4---|4---4---4---4---|
G  :----------------|----------------|----------------|----------------|
D  :----------------|----------------|----------------|----------------|
A  :----------------|----------------|----------------|----------------|
E  :----------------|----------------|----------------|----------------|

E  :----------------|----------------|1---1---1---1---|----------------|
B  :6---6---6---6---|6---6---6---6---|4---4---4---4---|1---1---1---1---|
G  :----------------|----------------|----------------|5---5---5---5---|
D  :----------------|----------------|----------------|----------------|
A  :----------------|----------------|----------------|----------------|
E  :----------------|----------------|----------------|----------------|

E  :----------------|----------------|----------------|----------------|
B  :6---6---6---6---|6---6---6---6---|4---4---4---4---|4---4---4---4---|
G  :----------------|----------------|----------------|----------------|
D  :----------------|----------------|----------------|----------------|
A  :----------------|----------------|----------------|----------------|
E  :----------------|----------------|----------------|----------------|

E  :----------------|----------------|1---1---1---1---|----------------|
B  :6---6---6---6---|6---6---6---6---|4---4---4---4---|1---1---1---1---|
G  :----------------|----------------|----------------|5---5---5---5---|
D  :----------------|----------------|----------------|----------------|
A  :----------------|----------------|----------------|----------------|
E  :----------------|----------------|----------------|----------------|

E  :----------------|----------------|----------------|----------------|
B  :6---6---6---6---|6---6---6---6---|4---4---4---4---|4---4---4---4---|
G  :----------------|----------------|----------------|----------------|
D  :----------------|----------------|----------------|----------------|
A  :----------------|----------------|----------------|----------------|
E  :----------------|----------------|----------------|----------------|

E  :----------------|----------------|1---1---1---1---|----------------|
B  :6---6---6---6---|6---6---6---6---|4---4---4---4---|1---1---1---1---|
G  :----------------|----------------|----------------|5---5---5---5---|
D  :----------------|----------------|----------------|----------------|
A  :----------------|----------------|----------------|----------------|
E  :----------------|----------------|----------------|----------------|

E  :----------------|----------------|----------------|----------------|
B  :6---6---6---6---|6---6---6---6---|4---4---4---4---|4---4---4---4---|
G  :----------------|----------------|----------------|----------------|
D  :----------------|----------------|----------------|----------------|
A  :----------------|----------------|----------------|----------------|
E  :----------------|----------------|----------------|----------------|

E  :----------------|----------------|1---1---1---1---|----------------|
B  :6---6---6---6---|6---6---6---6---|4---4---4---4---|1---1---1---1---|
G  :----------------|----------------|----------------|5---5---5---5---|
D  :----------------|----------------|----------------|----------------|
A  :----------------|----------------|----------------|----------------|
E  :----------------|----------------|----------------|----------------|

E  :----------------|----------------|----------------|----------------|
B  :6---6---6---6---|6---6---6---6---|4---4---4---4---|4---4---4---4---|
G  :----------------|----------------|----------------|----------------|
D  :----------------|----------------|----------------|----------------|
A  :----------------|----------------|----------------|----------------|
E  :----------------|----------------|----------------|----------------|

E  :----------------|----------------|1---1---1---1---|----------------|
B  :6---6---6---6---|6---6---6---6---|4---4---4---4---|1---1---1---1---|
G  :----------------|----------------|----------------|5---5---5---5---|
D  :----------------|----------------|----------------|----------------|
A  :----------------|----------------|----------------|----------------|
E  :----------------|----------------|----------------|----------------|

E  :----------------|----------------|----------------|----------------|
B  :6---6---6---6---|6---6---6---6---|4---4---4---4---|4---4---4---4---|
G  :----------------|----------------|----------------|----------------|
D  :----------------|----------------|----------------|----------------|
A  :----------------|----------------|----------------|----------------|
E  :----------------|----------------|----------------|----------------|

E  :----------------|----------------|1---1---1---1---|----------------|
B  :6---6---6---6---|6---6---6---6---|4---4---4---4---|1---1---1---1---|
G  :----------------|----------------|----------------|5---5---5---5---|
D  :----------------|----------------|----------------|----------------|
A  :----------------|----------------|----------------|----------------|
E  :----------------|----------------|----------------|----------------|

E  :----------------|----------------|----------------|----------------|
B  :6---6---6---6---|6---6---6---6---|4---4---4---4---|4---4---4---4---|
G  :----------------|----------------|----------------|----------------|
D  :----------------|----------------|----------------|----------------|
A  :----------------|----------------|----------------|----------------|
E  :----------------|----------------|----------------|----------------|

E  :----------------|----------------|1---1---1---1---|----------------|
B  :6---6---6---6---|6---6---6---6---|4---4---4---4---|1---1---1---1---|
G  :----------------|----------------|----------------|5---5---5---5---|
D  :----------------|----------------|----------------|----------------|
A  :----------------|----------------|----------------|----------------|
E  :----------------|----------------|----------------|----------------|


    (06:01) Acoustic Guitar - You can barely hear this melody, within
    the acoustic chords ending. Play this along. 

E  :----------------------|--------------------|--------------------|
B  :----------------------|--------------------|--------------------|
G  :-------10---13---13---|12---15---12---12---|13---12---12---12---|
D  :(10)------------------|--------------------|-----13---13---13---|
A  :----------------------|--------------------|--------------------|
E  :----------------------|--------------------|--------------------|

E  :--------------------|----------------------|--------------------|
B  :--------------------|----------------------|--------------------|
G  :12---12---12---12---|-------10---13---13---|12---15---12---12---|
D  :13---10---10---10---|(10)------------------|--------------------|
A  :--------------------|----------------------|--------------------|
E  :--------------------|----------------------|--------------------|

E  :--------------------|--------------------|----------------------|
B  :--------------------|--------------------|----------------------|
G  :13---12---12---12---|12---12---12---12---|-------10---13---13---|
D  :-----13---13---13---|13---10---10---10---|(10)--------15---15---|
A  :--------------------|--------------------|----------------------|
E  :--------------------|--------------------|----------------------|

E  :--------------------|--------------------|--------------------|
B  :--------------------|--------------------|--------------------|
G  :12---15---12---12---|13---12---12---12---|12---12---12---12---|
D  :--------------------|-----13---13---13---|13---10---10---10---|
A  :--------------------|--------------------|--------------------|
E  :--------------------|--------------------|--------------------|

E  :----------------------|--------------------|--------------------|
B  :----------------------|--------------------|--------------------|
G  :-------10---13---13---|12---15---12---12---|13---12---12---12---|
D  :(10)--------15---15---|--------------------|-----13---13---13---|
A  :----------------------|--------------------|--------------------|
E  :----------------------|--------------------|--------------------|

E  :--------------------|----------------------|--------------------|
B  :--------------------|----------------------|--------------------|
G  :12---12---12---12---|-------10---13---13---|12---15---12---12---|
D  :13---10---10---10---|(10)--------15---15---|--------------------|
A  :--------------------|----------------------|--------------------|
E  :--------------------|----------------------|--------------------|

E  :--------------------|--------------------|----------------------|
B  :--------------------|--------------------|----------------------|
G  :13---12---12---12---|12---12---12---12---|-------10---13---13---|
D  :-----13---13---13---|13---10---10---10---|(10)--------15---15---|
A  :--------------------|--------------------|----------------------|
E  :--------------------|--------------------|----------------------|

E  :--------------------|--------------------|--------------------|
B  :--------------------|--------------------|--------------------|
G  :12---15---12---12---|13---12---12---12---|12-12-12-12---*-----|
D  :--------------------|-----13---13---13---|13-10-10-10---*-----|
A  :--------------------|--------------------|--------------------|
E  :--------------------|--------------------|--------------------|

(06:30) Outro

Play the same Outro as in Track One, with Delay to add a richer 
atmosphere.









=================================
=================================
=================================
=================================


THIRD INSTRUMENT TRACK: GUITAR



=================================
=================================
=================================
=================================



(00:00) Clean/Overdriven Guitar

Eb :------------------|-------------------|-----------------|
Bb :------------------|-------------------|-----------------|
Gb :17----------------|(17)---------------|17---------------|
Db :------------------|-------------------|-----------------|
Ab :------------------|-------------------|-----------------|
Db :------------------|-------------------|-----------------|

Eb :-------------------|-----------------|-------------------|
Bb :-------------------|-----------------|-------------------|
Gb :(17)---------------|17---------------|(17)---------------|
Db :-------------------|-----------------|-------------------|
Ab :-------------------|-----------------|-------------------|
Db :-------------------|-----------------|-------------------|

Eb :-----------------|-------------------|
Bb :-----------------|-------------------|
Gb :17---------------|(17)---------------|
Db :-----------------|-------------------|
Ab :-----------------|-------------------|
Db :-----------------|-------------------|

Eb :-----------------|-------------------|-----------------|
Bb :-----------------|-------------------|-----------------|
Gb :17---------------|(17)---------------|17---------------|
Db :-----------------|-------------------|-----------------|
Ab :-----------------|-------------------|-----------------|
Db :-----------------|-------------------|-----------------|

Eb :-------------------|-----------------|-------------------|
Bb :-------------------|-----------------|-------------------|
Gb :(17)---------------|17---------------|(17)---------------|
Db :-------------------|-----------------|-------------------|
Ab :-------------------|-----------------|-------------------|
Db :-------------------|-----------------|-------------------|

Eb :-----------------|-------------------|-----------------|
Bb :-----------------|-------------------|-----------------|
Gb :17---------------|(17)---------------|17---------------|
Db :-----------------|-------------------|-----------------|
Ab :-----------------|-------------------|-----------------|
Db :-----------------|-------------------|-----------------|

Eb :-------------------|-----------------|-------------------|
Bb :-------------------|-----------------|-------------------|
Gb :(17)---------------|17---------------|(17)---------------|
Db :-------------------|-----------------|-------------------|
Ab :-------------------|-----------------|-------------------|
Db :-------------------|-----------------|-------------------|

Eb :-----------------|-------------------|-----------------|
Bb :-----------------|-------------------|-----------------|
Gb :17---------------|(17)---------------|17---------------|
Db :-----------------|-------------------|-----------------|
Ab :-----------------|-------------------|-----------------|
Db :-----------------|-------------------|-----------------|

Eb :-------------------|-----------------|-------------------|
Bb :-------------------|-----------------|-------------------|
Gb :(17)---------------|17---------------|(17)---------------|
Db :-------------------|-----------------|-------------------|
Ab :-------------------|-----------------|-------------------|
Db :-------------------|-----------------|-------------------|

Eb :-----------------|-------------------|-----------------|
Bb :-----------------|-------------------|-----------------|
Gb :17---------------|(17)---------------|17---------------|
Db :-----------------|-------------------|-----------------|
Ab :-----------------|-------------------|-----------------|
Db :-----------------|-------------------|-----------------|

Eb :-------------------|-----------------|-----------------|
Bb :-------------------|-----------------|-----------------|
Gb :(17)---------------|17---------------|17---------------|
Db :-------------------|-----------------|-----------------|
Ab :-------------------|-----------------|-----------------|
Db :-------------------|-----------------|-----------------|



    (00:49) Loud Overdriven Guitar
Eb :-----------------|-----------------|-----------------|----------------|
Bb :-----------------|-----------------|-----------------|----------------|
Gb :-----------------|-----------------|-----------------|----------------|
Db :10---------------|12---------------|13---------------|8---------------|
Ab :10---------------|12---------------|13---------------|8---------------|
Db :10---------------|12---------------|13---------------|8---------------|

Eb :-----------------|----------------|----------------|
Bb :-----------------|----------------|----------------|
Gb :-----------------|----------------|----------------|
Db :10---------------|5---------------|1---------------|
Ab :10---------------|5---------------|1---------------|
Db :10---------------|5---------------|1---------------|

Eb :-------------------------------|-----------------|-----------------|
Bb :-------------------------------|-----------------|-----------------|
Gb :7-7-7-7-7-7-7-7-7-7-7-7-7-7-7-7|-----------------|-----------------|
Db :7------------------------------|10---------------|12---------------|
Ab :5------------------------------|10---------------|12---------------|
Db :0------------------------------|10---------------|12---------------|

Eb :-----------------|----------------|-----------------|----------------|
Bb :-----------------|----------------|-----------------|----------------|
Gb :-----------------|----------------|-----------------|----------------|
Db :13---------------|8---------------|10---------------|5---------------|
Ab :13---------------|8---------------|10---------------|5---------------|
Db :13---------------|8---------------|10---------------|5---------------|

Eb :----------------|-------------------------------|-----------------|
Bb :----------------|-------------------------------|-----------------|
Gb :----------------|7-7-7-7-7-7-7-7-7-7-7-7-7-7-7-7|-----------------|
Db :1---------------|7------------------------------|10---------------|
Ab :1---------------|5------------------------------|10---------------|
Db :1---------------|0------------------------------|10---------------|

Eb :-----------------|-----------------|----------------|-----------------|
Bb :-----------------|-----------------|----------------|-----------------|
Gb :-----------------|-----------------|----------------|-----------------|
Db :12---------------|13---------------|8---------------|10---------------|
Ab :12---------------|13---------------|8---------------|10---------------|
Db :12---------------|13---------------|8---------------|10---------------|

Eb :----------------|----------------|-------------------------------|
Bb :----------------|----------------|-------------------------------|
Gb :----------------|----------------|7-7-7-7-7-7-7-7-7-7-7-7-7-7-7-7|
Db :5---------------|1---------------|7------------------------------|
Ab :5---------------|1---------------|5------------------------------|
Db :5---------------|1---------------|0------------------------------|

Eb :-----------------|-----------------|-----------------|----------------|
Bb :-----------------|-----------------|-----------------|----------------|
Gb :-----------------|-----------------|-----------------|----------------|
Db :10---------------|12---------------|13---------------|8---------------|
Ab :10---------------|12---------------|13---------------|8---------------|
Db :10---------------|12---------------|13---------------|8---------------|

Eb :-----------------|----------------|----------------|
Bb :-----------------|----------------|----------------|
Gb :-----------------|----------------|----------------|
Db :10---------------|5---------------|1---------------|
Ab :10---------------|5---------------|1---------------|
Db :10---------------|5---------------|1---------------|




                                   (01:38) Clean Guitar

Eb :-------------------------------|-------------------|
Bb :-------------------------------|-------------------|
Gb :7-7-7-7-7-7-7-7-7-7-7-7-7-7-7-7|----17---17-15-----|
Db :7------------------------------|*---17-------------|
Ab :5------------------------------|*---15-------------|
Db :0------------------------------|*------------------|

Eb :---------------------|-------------------|-------------------|
Bb :---------------------|----16---15---13---|11-----10----------|
Gb :-----22-17-22-20-----|-------------------|------------12-----|
Db :10-------------------|-------------------|-------------------|
Ab :---------------------|-------------------|-------------------|
Db :10-------------------|-------------------|-------------------|

Eb :-------------------|-------------------|------------------|
Bb :-----13------------|-------------------|------------------|
Gb :13---12-------15---|-------15----------|------------------|
Db :13-----------------|13----------17-----|----15---13-------|
Ab :-------------------|-------------------|------------------|
Db :-------------------|-------------------|------------------|

Eb :--------------------|-------------------|---------------------|
Bb :--------------------|-------------------|---------------------|
Gb :--------------------|----17---17-15-----|-----22-17-22-20-----|
Db :13---10---10---10---|----17-------------|10-------------------|
Ab :--------------------|----15-------------|---------------------|
Db :--------------------|-------------------|10-------------------|

Eb :-------------------|-------------------|-------------------|
Bb :----16---15---13---|--11---10----------|-----13------------|
Gb :-------------------|------------12-----|13---12-------15---|
Db :-------------------|-------------------|13-----------------|
Ab :-------------------|-------------------|-------------------|
Db :-------------------|-------------------|-------------------|

Eb :------------------|------------------|--------------------|
Bb :------------------|------------------|--------------------|
Gb :8-----15----------|------------------|--------------------|
Db :-----------17-----|----15---13-------|13---10---10---10---|
Ab :------------------|------------------|--------------------|
Db :------------------|------------------|--------------------|

Eb :-------------------|---------------------|-------------------|
Bb :-------------------|---------------------|----16---15---13---|
Gb :----17---17-15-----|-----22-17-22-20-----|-------------------|
Db :----17-------------|10-------------------|-------------------|
Ab :----15-------------|---------------------|-------------------|
Db :-------------------|10-------------------|-------------------|

Eb :-------------------|-------------------|------------------|
Bb :--11---10----------|-----13------------|------------------|
Gb :------------12-----|13---12-------15---|8-----15----------|
Db :-------------------|13-----------------|-----------17-----|
Ab :-------------------|-------------------|------------------|
Db :-------------------|-------------------|------------------|

Eb :------------------|--------------------|-------------------|
Bb :------------------|--------------------|-------------------|
Gb :------------------|--------------------|----17---17-15-----|
Db :----15---13-------|13---10---10---10---|----17-------------|
Ab :------------------|--------------------|----15-------------|
Db :------------------|--------------------|-------------------|

Eb :---------------------|-------------------|-------------------|
Bb :---------------------|----16---15---13---|--11---10----------|
Gb :-----22-17-22-20-----|-------------------|------------12-----|
Db :10-------------------|-------------------|-------------------|
Ab :---------------------|-------------------|-------------------|
Db :10-------------------|-------------------|-------------------|

Eb :-------------------|------------------|------------------|
Bb :-----13------------|------------------|------------------|
Gb :13---12-------15---|8-----15----------|------------------|
Db :13-----------------|-----------17-----|----15---13-------|
Ab :-------------------|------------------|------------------|
Db :-------------------|------------------|------------------|



                         (02:29) Overdriven Guitar

Eb :--------------------|-----------------------------|
Bb :--------------------|-----------------------------|
Gb :--------------------|----17-17-17-17-17-17-15-----|
Db :13---10---10---10---|----17-----------------------|
Ab :--------------------|----15-----------------------|
Db :--------------------|-----------------------------|

Eb :------------------------------|-------------------|------------------|
Bb :------------------------------|----16---15---13---|----11---10---8---|
Gb :-----22-22-22-22-22-22-20-----|-------------------|------------------|
Db :10----------------------------|-------------------|------------------|
Ab :------------------------------|-------------------|------------------|
Db :10----------------------------|-------------------|------------------|

Eb :-------------------|-------------------|------------------|
Bb :-------------------|-------------------|------------------|
Gb :13---17-------15---|-------15----------|------------------|
Db :13---17------------|13----------17-----|----15---13-------|
Ab :-------------------|-------------------|------------------|
Db :-------------------|-------------------|------------------|



			Rest...
Eb :------------------|*---------------|----------------|----------------|
Bb :------------------|*---------------|----------------|----------------|
Gb :------------------|*---------------|----------------|----------------|
Db :13-------10---8---|*---------------|----------------|----------------|
Ab :------------------|*---------------|----------------|----------------|
Db :------------------|*---------------|----------------|----------------|

Eb :----------------|----------------|----------------|----------------|
Bb :----------------|----------------|----------------|----------------|
Gb :----------------|----------------|----------------|----------------|
Db :----------------|----------------|----------------|----------------|
Ab :----------------|----------------|----------------|----------------|
Db :----------------|----------------|----------------|----------------|


Play the first two chords with overdriven and the last one with 
clean + reverb

Eb :----------------|----------11-------|----------------|
Bb :----------------|----------13-------|----------------|
Gb :----------------|-----------x-------|----------------|
Db :----------------|10---10---13-------|----------------|
Ab :----------------|10---10------------|----------------|
Db :----------------|10---10------------|----------------|


						Repeat here,
					      Overdriven then clean
Eb :--------------------|--------------------|----------13-------|
Bb :--------------------|--------------------|----------13-------|
Gb :--------------------|--------------------|-----------x-------|
Db :10---10---10---10---|10---10---10---10---|10---10---15-------|
Ab :10---10---10---10---|10---10---10---10---|10---10------------|
Db :10---10---10---10---|10---10---10---10---|10---10------------|

Eb :----------------|--------------------|--------------------|
Bb :----------------|--------------------|--------------------|
Gb :----------------|--------------------|--------------------|
Db :----------------|10---10---10---10---|10---10---10---10---|
Ab :----------------|10---10---10---10---|10---10---10---10---|
Db :----------------|10---10---10---10---|10---10---10---10---|



	this one goes clean aswell		Now go with Distortion
Eb :-------------11---------|----------------|--------------------|
Bb :----------13----13------|----------------|16---16---16---16---|
Gb :--------8---------------|----------------|-x----x----x----x---|
Db :------------------------|----------------|17---17---17---17---|
Ab :------------------------|----------------|-*------------------|
Db :------------------------|----------------|-*------------------|


  	keep distortion... keep it... go clean... back to distortion
Eb :--------------------|----------------------------|--------------------|
Bb :16---16---16---16---|16---15---15-(18)------15---|15---15---15---15---|
Gb :-x----x----x----x---|-x----x----x-(17)-------x---|-x----x----x----x---|
Db :17---17---17---17---|17---17---17-----------17---|17---17---17---17---|
Ab :--------------------|----------------------------|--------------------|
Db :--------------------|----------------------------|--------------------|


						clean again
Eb :--------------------|--------------------|-------------11---------|
Bb :15---15---15---15---|15---15---15---15---|----------13----13------|
Gb :-x----x----x----x---|-x----x----x----x---|--------8---------------|
Db :17---17---17---17---|17---17---17---17---|------------------------|
Ab :--------------------|--------------------|------------------------|
Db :--------------------|--------------------|------------------------|


			back to distortion... see, it's the same
			pattern! repeat it ;)
Eb :----------------|--------------------|--------------------|
Bb :----------------|16---16---16---16---|16---16---16---16---|
Gb :----------------|-x----x----x----x---|-x----x----x----x---|
Db :----------------|17---17---17---17---|17---17---17---17---|
Ab :----------------|--------------------|--------------------|
Db :----------------|--------------------|--------------------|

Eb :-----------------(13)-------|--------------------|--------------------|
Bb :16---15---15-(13)------15---|15---15---15---15---|15---15---15---15---|
Gb :-x----x----x------------x---|-x----x----x----x---|-x----x----x----x---|
Db :17---17---17-----------17---|17---17---17---17---|17---17---17---17---|
Ab :----------------------------|--------------------|--------------------|
Db :----------------------------|--------------------|--------------------|

Eb :--------------------|-------------11---------|----------------|
Bb :15---15---15---15---|----------13----13------|----------------|
Gb :-x----x----x----x---|--------8---------------|----------------|
Db :17---17---17---17---|------------------------|----------------|
Ab :--------------------|------------------------|----------------|
Db :--------------------|------------------------|----------------|

Eb :--------------------|--------------------|-----------------(13)-------|
Bb :16---16---16---16---|16---16---16---16---|16---15---15-(13)------15---|
Gb :-x----x----x----x---|-x----x----x----x---|-x----x----x------------x---|
Db :17---17---17---17---|17---17---17---17---|17---17---17-----------17---|
Ab :--------------------|--------------------|----------------------------|
Db :--------------------|--------------------|----------------------------|

Eb :--------------------|--------------------|--------------------|
Bb :15---15---15---15---|15---15---15---15---|15---15---15---15---|
Gb :-x----x----x----x---|-x----x----x----x---|-x----x----x----x---|
Db :17---17---17---17---|17---17---17---17---|17---17---17---17---|
Ab :--------------------|--------------------|--------------------|
Db :--------------------|--------------------|--------------------|

Eb :--------------------|--------------------|--------------------|
Bb :16---16---16---16---|16---16---16---16---|16---16---16---16---|
Gb :-x----x----x----x---|-x----x----x----x---|-x----x----x----x---|
Db :17---17---17---17---|17---17---17---17---|17---17---17---17---|
Ab :--------------------|--------------------|--------------------|
Db :--------------------|--------------------|--------------------|

Eb :--------------------|-----------------(13)-------|--------------------|
Bb :16---16---16---16---|16---15---15-(13)------15---|15---15---15---15---|
Gb :-x----x----x----x---|-x----x----x------------x---|-x----x----x----x---|
Db :17---17---17---17---|17---17---17-----------17---|17---17---17---17---|
Ab :--------------------|----------------------------|--------------------|
Db :--------------------|----------------------------|--------------------|


						Now Clean Guitar
Eb :--------------------|--------------------|--------------------|
Bb :15---15---15---15---|15---15---15---15---|--------------------|
Gb :-x----x----x----x---|-x----x----x----x---|12---12---13---13---|
Db :17---17---17---17---|17---17---17---17---|--------------------|
Ab :--------------------|--------------------|--------------------|
Db :--------------------|--------------------|--------------------|

Eb :--------------------|------------------|----------------|
Bb :--------------------|------------------|----------------|
Gb :10---10---12---12---|8---8---10---10---|7---7---5---5---|
Db :--------------------|------------------|----------------|
Ab :--------------------|------------------|----------------|
Db :--------------------|------------------|----------------|

Eb :--------------------|--------------------|------------------|
Bb :--------------------|--------------------|------------------|
Gb :12---12---13---13---|10---10---12---12---|8---8---10---10---|
Db :--------------------|--------------------|------------------|
Ab :--------------------|--------------------|------------------|
Db :--------------------|--------------------|------------------|

Eb :----------------|--------------------|--------------------|
Bb :----------------|--------------------|--------------------|
Gb :7---7---5---5---|12---12---13---13---|10---10---12---12---|
Db :----------------|--------------------|--------------------|
Ab :----------------|--------------------|--------------------|
Db :----------------|--------------------|--------------------|

Eb :------------------|----------------|--------------------|
Bb :------------------|----------------|--------------------|
Gb :8---8---10---10---|7---7---5---5---|12---12---13---13---|
Db :------------------|----------------|--------------------|
Ab :------------------|----------------|--------------------|
Db :------------------|----------------|--------------------|

Eb :--------------------|------------------|----------------|
Bb :--------------------|------------------|----------------|
Gb :10---10---12---12---|8---8---10---10---|7---7---5---5---|
Db :--------------------|------------------|----------------|
Ab :--------------------|------------------|----------------|
Db :--------------------|------------------|----------------|

Eb :--------------------|--------------------|------------------|
Bb :--------------------|--------------------|------------------|
Gb :12---12---13---13---|10---10---12---12---|8---8---10---10---|
Db :--------------------|--------------------|------------------|
Ab :--------------------|--------------------|------------------|
Db :--------------------|--------------------|------------------|

Eb :----------------|--------------------|--------------------|
Bb :----------------|--------------------|--------------------|
Gb :7---7---5---5---|12---12---13---13---|10---10---12---12---|
Db :----------------|--------------------|--------------------|
Ab :----------------|--------------------|--------------------|
Db :----------------|--------------------|--------------------|

Eb :------------------|----------------|--------------------|
Bb :------------------|----------------|--------------------|
Gb :8---8---10---10---|7---7---5---5---|12---12---13---13---|
Db :------------------|----------------|--------------------|
Ab :------------------|----------------|--------------------|
Db :------------------|----------------|--------------------|

Eb :--------------------|------------------|----------------|
Bb :--------------------|------------------|----------------|
Gb :10---10---12---12---|8---8---10---10---|7---7---5---5---|
Db :--------------------|------------------|----------------|
Ab :--------------------|------------------|----------------|
Db :--------------------|------------------|----------------|

Eb :--------------------|--------------------|------------------|
Bb :--------------------|--------------------|------------------|
Gb :12---12---13---13---|10---10---12---12---|8---8---10---10---|
Db :--------------------|--------------------|------------------|
Ab :--------------------|--------------------|------------------|
Db :--------------------|--------------------|------------------|

Eb :----------------|-*------------------|--------------------|
Bb :----------------|-*------------------|--------------------|
Gb :7---7---5---5---|12---12---13---13---|12---10---12---12---|
Db :----------------|-*------------------|--------------------|
Ab :----------------|-*------------------|--------------------|
Db :----------------|-*------------------|--------------------|

Eb :------------------|----------------|----------------------------|
Bb :------------------|----------------|----------------------------|
Gb :10---10---8---8---|7---7---5---5---|-12-----12-----12-----12----|
Db :------------------|----------------|(12)---(12)---(12)---(12)---|
Ab :------------------|----------------|----------------------------|
Db :------------------|----------------|----------------------------|

Eb :--------------------|------------------|----------------|
Bb :--------------------|------------------|----------------|
Gb :12---13---12---10---|10---10---8---8---|7---7---5---5---|
Db :--------------------|------------------|----------------|
Ab :--------------------|------------------|----------------|
Db :--------------------|------------------|----------------|

Eb :----------------------------|--------------------|------------------|
Bb :----------------------------|--------------------|------------------|
Gb :-12-----12-----12-----12----|12---13---12---10---|10---10---8---8---|
Db :(12)---(12)---(12)---(12)---|--------------------|------------------|
Ab :----------------------------|--------------------|------------------|
Db :----------------------------|--------------------|------------------|

Eb :----------------|----------------------------|--------------------|
Bb :----------------|----------------------------|--------------------|
Gb :7---7---5---5---|-12-----12-----12-----12----|12---13---12---10---|
Db :----------------|(12)---(12)---(12)---(12)---|--------------------|
Ab :----------------|----------------------------|--------------------|
Db :----------------|----------------------------|--------------------|



					GO LOUD DISTORTION!


Eb :------------------|----------------|--------------------|
Bb :------------------|----------------|--------------------|
Gb :10---10---8---8---|7---7---5---5---|--------------------|
Db :------------------|----------------|10---10---10---10---|
Ab :------------------|----------------|10---10---10---10---|
Db :------------------|----------------|10---10---10---10---|

Eb :--------------------|--------------------|--------------------|
Bb :--------------------|--------------------|--------------------|
Gb :--------------------|--------------------|--------------------|
Db :10---10---10---10---|10---10---10---10---|10---10---10---10---|
Ab :10---10---10---10---|10---10---10---10---|10---10---10---10---|
Db :10---10---10---10---|10---10---10---10---|10---10---10---10---|

Eb :13---13---13---13---|13---13---13---13---|11---11---11---11---|
Bb :--------------------|--------------------|--------------------|
Gb :--------------------|--------------------|--------------------|
Db :10---10---10---10---|10---10---10---10---|10---10---10---10---|
Ab :10---10---10---10---|10---10---10---10---|10---10---10---10---|
Db :10---10---10---10---|10---10---10---10---|10---10---10---10---|

Eb :11---11---11---11---|-*------------------|--------------------|
Bb :--------------------|--------------------|--------------------|
Gb :--------------------|--------------------|--------------------|
Db :10---10---10---10---|10---10---10---10---|10---10---10---10---|
Ab :10---10---10---10---|10---10---10---10---|10---10---10---10---|
Db :10---10---10---10---|10---10---10---10---|10---10---10---10---|

Eb :--------------------|--------------------|13---13---13---13---|
Bb :--------------------|--------------------|--------------------|
Gb :--------------------|--------------------|--------------------|
Db :10---10---10---10---|10---10---10---10---|10---10---10---10---|
Ab :10---10---10---10---|10---10---10---10---|10---10---10---10---|
Db :10---10---10---10---|10---10---10---10---|10---10---10---10---|

Eb :13---13---13---13---|11---11---11---11---|11---11---11---11---|
Bb :--------------------|--------------------|--------------------|
Gb :--------------------|--------------------|--------------------|
Db :10---10---10---10---|10---10---10---10---|10---10---10---10---|
Ab :10---10---10---10---|10---10---10---10---|10---10---10---10---|
Db :10---10---10---10---|10---10---10---10---|10---10---10---10---|

Eb :-*--------------------|--------------------|--------------------|
Bb :----------------------|--------------------|--------------------|
Gb :-----10-10--12--------|--------------------|--------------------|
Db :10---10-----10---10---|10---10---10---10---|10---10---10---10---|
Ab :10---10-----10---10---|10---10---10---10---|10---10---10---10---|
Db :10---10-----10---10---|10---10---10---10---|10---10---10---10---|

Eb :--------------------|13---13---13---13---|13---13---13---13---|
Bb :--------------------|--------------------|--------------------|
Gb :--------------------|--------------------|--------------------|
Db :10---10---10---10---|10---10---10---10---|10---10---10---10---|
Ab :10---10---10---10---|10---10---10---10---|10---10---10---10---|
Db :10---10---10---10---|10---10---10---10---|10---10---10---10---|

Eb :11---11---11---11---|11---11---11---11---|-*--------------------|
Bb :--------------------|--------------------|----------------------|
Gb :--------------------|--------------------|-----10-10--12--------|
Db :10---10---10---10---|10---10---10---10---|10---10-----10---10---|
Ab :10---10---10---10---|10---10---10---10---|10---10-----10---10---|
Db :10---10---10---10---|10---10---10---10---|10---10-----10---10---|

Eb :--------------------|--------------------|--------------------|
Bb :--------------------|--------------------|--------------------|
Gb :--------------------|--------------------|--------------------|
Db :10---10---10---10---|10---10---10---10---|10---10---10---10---|
Ab :10---10---10---10---|10---10---10---10---|10---10---10---10---|
Db :10---10---10---10---|10---10---10---10---|10---10---10---10---|

Eb :13---13---13---13---|13---13---13---13---|11---11---11---11---|
Bb :--------------------|--------------------|--------------------|
Gb :--------------------|--------------------|--------------------|
Db :10---10---10---10---|10---10---10---10---|10---10---10---10---|
Ab :10---10---10---10---|10---10---10---10---|10---10---10---10---|
Db :10---10---10---10---|10---10---10---10---|10---10---10---10---|

Eb :11---11---11---11---|
Bb :--------------------|
Gb :--------------------|
Db :10---10---10---10---|
Ab :10---10---10---10---|
Db :10---10---10---10---|

(04:56)

It ends right before the two guitars dance with the last bassline.


As you may see, this is a complementary track, yet it contains 
different notes that the other tracks don't have, so don't keep it 
out of your jam session. 







=================================
=================================
=================================
=================================


FOURTH INSTRUMENT TRACK: PEDAL STEEL



=================================
=================================
=================================
=================================



The Pedal Steel uses different processors and FX modules,
just choose the best that suits your

NOTES: Tempo changes a bit. Also, there seems to be a space
between notes as in: - (17)17-(17)17-... but it's not meant
to be there (and i'm to lazy to change that in the sequencer), 
so just ignore the space and play it fast; listen
to the song for rhythm.


Eb :-------------------------------------------------------|
Bb :-------------------------------------------------------|
Gb :(17)17-(17)17-(17)17-(17)17-(17)17-(17)17-(17)17-(17)17|
Db :-------------------------------------------------------|
Ab :-------------------------------------------------------|
Db :-------------------------------------------------------|

Eb :-------------------------------------------------------|
Bb :-------------------------------------------------------|
Gb :(17)17-(17)17-(17)17-(17)17-(17)17-(17)17-(17)17-(17)17|
Db :-------------------------------------------------------|
Ab :-------------------------------------------------------|
Db :-------------------------------------------------------|

Eb :-------------------------------------------------------|
Bb :-------------------------------------------------------|
Gb :(17)17-(17)17-(17)17-(17)17-(17)17-(17)17-(17)17-(17)17|
Db :-------------------------------------------------------|
Ab :-------------------------------------------------------|
Db :-------------------------------------------------------|

Eb :-------------------------------------------------------|
Bb :-------------------------------------------------------|
Gb :(17)17-(17)17-(17)17-(17)17-(17)17-(17)17-(17)17-(17)17|
Db :-------------------------------------------------------|
Ab :-------------------------------------------------------|
Db :-------------------------------------------------------|

Eb :-------------------------------------------------------|
Bb :-------------------------------------------------------|
Gb :(17)17-(17)17-(17)17-(17)17-(17)17-(17)17-(17)17-(17)17|
Db :-------------------------------------------------------|
Ab :-------------------------------------------------------|
Db :-------------------------------------------------------|

Eb :-------------------------------------------------------|
Bb :-------------------------------------------------------|
Gb :(17)17-(17)17-(17)17-(17)17-(17)17-(17)17-(17)17-(17)17|
Db :-------------------------------------------------------|
Ab :-------------------------------------------------------|
Db :-------------------------------------------------------|

Eb :-------------------------------------------------------|
Bb :-------------------------------------------------------|
Gb :(17)17-(17)17-(17)17-(17)17-(17)17-(17)17-(17)17-(17)17|
Db :-------------------------------------------------------|
Ab :-------------------------------------------------------|
Db :-------------------------------------------------------|

Eb :-------------------------------------------------------|
Bb :-------------------------------------------------------|
Gb :(17)17-(17)17-(17)17-(17)17-(17)17-(17)17-(17)17-(17)17|
Db :-------------------------------------------------------|
Ab :-------------------------------------------------------|
Db :-------------------------------------------------------|

Eb :-------------------------------------------------------|
Bb :-------------------------------------------------------|
Gb :(17)17-(17)17-(17)17-(17)17-(17)17-(17)17-(17)17-(17)17|
Db :-------------------------------------------------------|
Ab :-------------------------------------------------------|
Db :-------------------------------------------------------|

Eb :-------------------------------------------------------|
Bb :-------------------------------------------------------|
Gb :(17)17-(17)17-(17)17-(17)17-(17)17-(17)17-(17)17-(17)17|
Db :-------------------------------------------------------|
Ab :-------------------------------------------------------|
Db :-------------------------------------------------------|

Eb :-------------------------------------------------------|
Bb :-------------------------------------------------------|
Gb :(17)17-(17)17-(17)17-(17)17-(17)17-(17)17-(17)17-(17)17|
Db :-------------------------------------------------------|
Ab :-------------------------------------------------------|
Db :-------------------------------------------------------|

Eb :-------------------------------------------------------|
Bb :-------------------------------------------------------|
Gb :(17)17-(17)17-(17)17-(17)17-(17)17-(17)17-(17)17-(17)17|
Db :-------------------------------------------------------|
Ab :-------------------------------------------------------|
Db :-------------------------------------------------------|

Eb :-------------------------------------------------------|
Bb :-------------------------------------------------------|
Gb :(17)17-(17)17-(17)17-(17)17-(17)17-(17)17-(17)17-(17)17|
Db :-------------------------------------------------------|
Ab :-------------------------------------------------------|
Db :-------------------------------------------------------|

Eb :-------------------------------------------------------|
Bb :-------------------------------------------------------|
Gb :(17)17-(17)17-(17)17-(17)17-(17)17-(17)17-(17)17-(17)17|
Db :-------------------------------------------------------|
Ab :-------------------------------------------------------|
Db :-------------------------------------------------------|

Eb :-------------------------------------------------------|
Bb :-------------------------------------------------------|
Gb :(17)17-(17)17-(17)17-(17)17-(17)17-(17)17-(17)17-(17)17|
Db :-------------------------------------------------------|
Ab :-------------------------------------------------------|
Db :-------------------------------------------------------|

Eb :-------------------------------------------------------|
Bb :-------------------------------------------------------|
Gb :(17)17-(17)17-(17)17-(17)17-(17)17-(17)17-(17)17-(17)17|
Db :-------------------------------------------------------|
Ab :-------------------------------------------------------|
Db :-------------------------------------------------------|

Eb :-------------------------------------------------------|
Bb :-------------------------------------------------------|
Gb :(17)17-(17)17-(17)17-(17)17-(17)17-(17)17-(17)17-(17)17|
Db :-------------------------------------------------------|
Ab :-------------------------------------------------------|
Db :-------------------------------------------------------|

Eb :-------------------------------------------------------|
Bb :-------------------------------------------------------|
Gb :(17)17-(17)17-(17)17-(17)17-(17)17-(17)17-(17)17-(17)17|
Db :-------------------------------------------------------|
Ab :-------------------------------------------------------|
Db :-------------------------------------------------------|

Eb :-------------------------------------------------------|
Bb :-------------------------------------------------------|
Gb :(17)17-(17)17-(17)17-(17)17-(17)17-(17)17-(17)17-(17)17|
Db :-------------------------------------------------------|
Ab :-------------------------------------------------------|
Db :-------------------------------------------------------|

Eb :-------------------------------------------------------|
Bb :-------------------------------------------------------|
Gb :(17)17-(17)17-(17)17-(17)17-(17)17-(17)17-(17)17-(17)17|
Db :-------------------------------------------------------|
Ab :-------------------------------------------------------|
Db :-------------------------------------------------------|

Eb :-------------------------------------------------------|
Bb :-------------------------------------------------------|
Gb :(17)17-(17)17-(17)17-(17)17-(17)17-(17)17-(17)17-(17)17|
Db :-------------------------------------------------------|
Ab :-------------------------------------------------------|
Db :-------------------------------------------------------|

Eb :-------------------------------------------------------|
Bb :-------------------------------------------------------|
Gb :(17)17-(17)17-(17)17-(17)17-(17)17-(17)17-(17)17-(17)17|
Db :-------------------------------------------------------|
Ab :-------------------------------------------------------|
Db :-------------------------------------------------------|

Eb :-------------------------------------------------------|
Bb :-------------------------------------------------------|
Gb :(17)17-(17)17-(17)17-(17)17-(17)17-(17)17-(17)17-(17)17|
Db :-------------------------------------------------------|
Ab :-------------------------------------------------------|
Db :-------------------------------------------------------|

Eb :-------------------------------------------------------|
Bb :-------------------------------------------------------|
Gb :(17)17-(17)17-(17)17-(17)17-(17)17-(17)17-(17)17-(17)17|
Db :-------------------------------------------------------|
Ab :-------------------------------------------------------|
Db :-------------------------------------------------------|

Eb :-------------------------------------------------------|
Bb :-------------------------------------------------------|
Gb :(17)17-(17)17-(17)17-(17)17-(17)17-(17)17-(17)17-(17)17|
Db :-------------------------------------------------------|
Ab :-------------------------------------------------------|
Db :-------------------------------------------------------|

Eb :-------------------------------------------------------|
Bb :-------------------------------------------------------|
Gb :(17)17-(17)17-(17)17-(17)17-(17)17-(17)17-(17)17-(17)17|
Db :-------------------------------------------------------|
Ab :-------------------------------------------------------|
Db :-------------------------------------------------------|

Eb :-------------------------------------------------------|
Bb :-------------------------------------------------------|
Gb :(17)17-(17)17-(17)17-(17)17-(17)17-(17)17-(17)17-(17)17|
Db :-------------------------------------------------------|
Ab :-------------------------------------------------------|
Db :-------------------------------------------------------|

Eb :-------------------------------------------------------|
Bb :-------------------------------------------------------|
Gb :(17)17-(17)17-(17)17-(17)17-(17)17-(17)17-(17)17-(17)17|
Db :-------------------------------------------------------|
Ab :-------------------------------------------------------|
Db :-------------------------------------------------------|

Eb :-------------------------------------------------------|
Bb :-------------------------------------------------------|
Gb :(17)17-(17)17-(17)17-(17)17-(17)17-(17)17-(17)17-(17)17|
Db :-------------------------------------------------------|
Ab :-------------------------------------------------------|
Db :-------------------------------------------------------|

Eb :-------------------------------------------------------|
Bb :-------------------------------------------------------|
Gb :(17)17-(17)17-(17)17-(17)17-(17)17-(17)17-(17)17-(17)17|
Db :-------------------------------------------------------|
Ab :-------------------------------------------------------|
Db :-------------------------------------------------------|

Eb :-------------------------------------------------------|
Bb :-------------------------------------------------------|
Gb :(17)17-(17)17-(17)17-(17)17-(17)17-(17)17-(17)17-(17)17|
Db :-------------------------------------------------------|
Ab :-------------------------------------------------------|
Db :-------------------------------------------------------|

Eb :-------------------------------------------------------|
Bb :-------------------------------------------------------|
Gb :(17)17-(17)17-(17)17-(17)17-(17)17-(17)17-(17)17-(17)17|
Db :-------------------------------------------------------|
Ab :-------------------------------------------------------|
Db :-------------------------------------------------------|



(00:49) The Pedal steel fades out from the intro and...


Eb :-------------------------------|----------------|----------------|
Bb :-------------------------------|----------------|----------------|
Gb :(17)-17-(17)-17-(17)-17-(17)---|----------------|----------------|
Db :-------------------------------|----------------|----------------|
Ab :-------------------------------|----------------|----------------|
Db :-------------------------------|----------------|----------------|

Eb :----------------|----------------|----------------|----------------|
Bb :----------------|----------------|----------------|----------------|
Gb :----------------|----------------|----------------|----------------|
Db :----------------|----------------|----------------|----------------|
Ab :----------------|----------------|----------------|----------------|
Db :----------------|----------------|----------------|----------------|

Eb :----------------|----------------|----------------|----------------|
Bb :----------------|----------------|----------------|----------------|
Gb :----------------|----------------|----------------|----------------|
Db :----------------|----------------|----------------|----------------|
Ab :----------------|----------------|----------------|----------------|
Db :----------------|----------------|----------------|----------------|

Eb :----------------|----------------|----------------|----------------|
Bb :----------------|----------------|----------------|----------------|
Gb :----------------|----------------|----------------|----------------|
Db :----------------|----------------|----------------|----------------|
Ab :----------------|----------------|----------------|----------------|
Db :----------------|----------------|----------------|----------------|



(01:13) ... enters again at this second


Eb :----------------|8-(8)8-(8)8-(8)8-(8)8-(8)8-(8)8-(8)8-(8)|
Bb :----------------|----------------------------------------|
Gb :----------------|----------------------------------------|
Db :----------------|----------------------------------------|
Ab :----------------|----------------------------------------|
Db :----------------|----------------------------------------|

Eb :10-(10)10-(10)10-(10)10-(10)10-(10)10-(10)10-(10)10-(10)|
Bb :--------------------------------------------------------|
Gb :--------------------------------------------------------|
Db :--------------------------------------------------------|
Ab :--------------------------------------------------------|
Db :--------------------------------------------------------|

Eb :11-(11)11-(11)11-(11)11-(11)11-(11)11-(11)11-(11)11-(11)|
Bb :--------------------------------------------------------|
Gb :--------------------------------------------------------|
Db :--------------------------------------------------------|
Ab :--------------------------------------------------------|
Db :--------------------------------------------------------|

Eb :11-(11)11-(11)11-(11)11-(11)11-(11)11-(11)11-(11)11-(11)|
Bb :--------------------------------------------------------|
Gb :--------------------------------------------------------|
Db :--------------------------------------------------------|
Ab :--------------------------------------------------------|
Db :--------------------------------------------------------|

Eb :8-(8)8-(8)8-(8)8-(8)8-(8)8-(8)8-(8)8-(8)|
Bb :----------------------------------------|
Gb :----------------------------------------|
Db :----------------------------------------|
Ab :----------------------------------------|
Db :----------------------------------------|

Eb :3-(3)3-(3)3-(3)3-(3)3-(3)3-(3)3-(3)3-(3)|
Bb :----------------------------------------|
Gb :----------------------------------------|
Db :----------------------------------------|
Ab :----------------------------------------|
Db :----------------------------------------|

Eb :11-(11)11-(11)11-(11)11-(11)11-(11)11-(11)11-(11)11-(11)|
Bb :--------------------------------------------------------|
Gb :--------------------------------------------------------|
Db :--------------------------------------------------------|
Ab :--------------------------------------------------------|
Db :--------------------------------------------------------|

Eb :10-(10)10-(10)10-(10)10-(10)10-(10)10-(10)10-(10)10-(10)|
Bb :--------------------------------------------------------|
Gb :--------------------------------------------------------|
Db :--------------------------------------------------------|
Ab :--------------------------------------------------------|
Db :--------------------------------------------------------|

Eb :8-(8)8-(8)8-(8)8-(8)8-(8)8-(8)8-(8)8-(8)|
Bb :----------------------------------------|
Gb :----------------------------------------|
Db :----------------------------------------|
Ab :----------------------------------------|
Db :----------------------------------------|

Eb :10-(10)10-(10)10-(10)10-(10)10-(10)10-(10)10-(10)10-(10)|
Bb :--------------------------------------------------------|
Gb :--------------------------------------------------------|
Db :--------------------------------------------------------|
Ab :--------------------------------------------------------|
Db :--------------------------------------------------------|

Eb :11-(11)11-(11)11-(11)11-(11)11-(11)11-(11)11-(11)11-(11)|
Bb :--------------------------------------------------------|
Gb :--------------------------------------------------------|
Db :--------------------------------------------------------|
Ab :--------------------------------------------------------|
Db :--------------------------------------------------------|

Eb :11-(11)11-(11)11-(11)11-(11)11-(11)11-(11)11-(11)11-(11)|
Bb :--------------------------------------------------------|
Gb :--------------------------------------------------------|
Db :--------------------------------------------------------|
Ab :--------------------------------------------------------|
Db :--------------------------------------------------------|

Eb :8-(8)8-(8)8-(8)8-(8)8-(8)8-(8)8-(8)8-(8)|
Bb :----------------------------------------|
Gb :----------------------------------------|
Db :----------------------------------------|
Ab :----------------------------------------|
Db :----------------------------------------|

Eb :3-(3)3-(3)3-(3)3-(3)3-(3)3-(3)3-(3)3-(3)|
Bb :----------------------------------------|
Gb :----------------------------------------|
Db :----------------------------------------|
Ab :----------------------------------------|
Db :----------------------------------------|

Eb :11-(11)11-(11)11-(11)11-(11)11-(11)11-(11)11-(11)11-(11)|
Bb :--------------------------------------------------------|
Gb :--------------------------------------------------------|
Db :--------------------------------------------------------|
Ab :--------------------------------------------------------|
Db :--------------------------------------------------------|

Eb :10-(10)10-(10)10-(10)10-(10)10-(10)10-(10)10-(10)10-(10)|
Bb :--------------------------------------------------------|
Gb :--------------------------------------------------------|
Db :--------------------------------------------------------|
Ab :--------------------------------------------------------|
Db :--------------------------------------------------------|


fades out after small "chorus"

Eb :10-10-10-10-10-10-10-10-10-10-10-10-10-10-10-10|----------------|
Bb :-----------------------------------------------|----------------|
Gb :-----------------------------------------------|----------------|
Db :-----------------------------------------------|----------------|
Ab :-----------------------------------------------|----------------|
Db :-----------------------------------------------|----------------|

Eb :----------------|----------------|----------------|----------------|
Bb :----------------|----------------|----------------|----------------|
Gb :----------------|----------------|----------------|----------------|
Db :----------------|----------------|----------------|----------------|
Ab :----------------|----------------|----------------|----------------|
Db :----------------|----------------|----------------|----------------|

Eb :----------------|----------------|----------------|----------------|
Bb :----------------|----------------|----------------|----------------|
Gb :----------------|----------------|----------------|----------------|
Db :----------------|----------------|----------------|----------------|
Ab :----------------|----------------|----------------|----------------|
Db :----------------|----------------|----------------|----------------|

Eb :----------------|----------------|----------------|----------------|
Bb :----------------|----------------|----------------|----------------|
Gb :----------------|----------------|----------------|----------------|
Db :----------------|----------------|----------------|----------------|
Ab :----------------|----------------|----------------|----------------|
Db :----------------|----------------|----------------|----------------|

Eb :----------------|----------------|----------------|----------------|
Bb :----------------|----------------|----------------|----------------|
Gb :----------------|----------------|----------------|----------------|
Db :----------------|----------------|----------------|----------------|
Ab :----------------|----------------|----------------|----------------|
Db :----------------|----------------|----------------|----------------|

Eb :----------------|----------------|----------------|----------------|
Bb :----------------|----------------|----------------|----------------|
Gb :----------------|----------------|----------------|----------------|
Db :----------------|----------------|----------------|----------------|
Ab :----------------|----------------|----------------|----------------|
Db :----------------|----------------|----------------|----------------|

Eb :----------------|----------------|----------------|----------------|
Bb :----------------|----------------|----------------|----------------|
Gb :----------------|----------------|----------------|----------------|
Db :----------------|----------------|----------------|----------------|
Ab :----------------|----------------|----------------|----------------|
Db :----------------|----------------|----------------|----------------|

Eb :----------------|----------------|----------------|----------------|
Bb :----------------|----------------|----------------|----------------|
Gb :----------------|----------------|----------------|----------------|
Db :----------------|----------------|----------------|----------------|
Ab :----------------|----------------|----------------|----------------|
Db :----------------|----------------|----------------|----------------|

Eb :----------------|----------------|
Bb :----------------|----------------|
Gb :----------------|----------------|
Db :----------------|----------------|
Ab :----------------|----------------|
Db :----------------|----------------|


(02:29) Pedal Comes in with delay as always

Eb :8-(8)8-(8)8-(8)8-(8)8-(8)8-(8)8-(8)8-(8)|
Bb :----------------------------------------|
Gb :----------------------------------------|
Db :----------------------------------------|
Ab :----------------------------------------|
Db :----------------------------------------|

Eb :8-(8)6-(6)6-(6)6-(6)6-(6)6-(6)6-(6)6-(6)|
Bb :----------------------------------------|
Gb :----------------------------------------|
Db :----------------------------------------|
Ab :----------------------------------------|
Db :----------------------------------------|

Eb :8-(8)8-(8)8-(8)8-(8)8-(8)8-(8)8-(8)8-(8)|
Bb :----------------------------------------|
Gb :----------------------------------------|
Db :----------------------------------------|
Ab :----------------------------------------|
Db :----------------------------------------|

Eb :8-(8)6-(6)6-(6)6-(6)6-(6)6-(6)6-(6)6-(6)|
Bb :----------------------------------------|
Gb :----------------------------------------|
Db :----------------------------------------|
Ab :----------------------------------------|
Db :----------------------------------------|

Eb :8-(8)8-(8)8-(8)8-(8)8-(8)8-(8)8-(8)8-(8)|
Bb :----------------------------------------|
Gb :----------------------------------------|
Db :----------------------------------------|
Ab :----------------------------------------|
Db :----------------------------------------|

Eb :8-(8)6-(6)6-(6)6-(6)6-(6)6-(6)6-(6)6-(6)|
Bb :----------------------------------------|
Gb :----------------------------------------|
Db :----------------------------------------|
Ab :----------------------------------------|
Db :----------------------------------------|

Eb :8-(8)8-(8)8-(8)8-(8)8-(8)8-(8)8-(8)8-(8)|
Bb :----------------------------------------|
Gb :----------------------------------------|
Db :----------------------------------------|
Ab :----------------------------------------|
Db :----------------------------------------|


						REST!
Eb :8-(8)6-(6)6-(6)6-(6)6-(6)6-(6)6-(6)6-(8)|8---------------|
Bb :----------------------------------------|*---------------|
Gb :----------------------------------------|*---------------|
Db :----------------------------------------|*---------------|
Ab :----------------------------------------|*---------------|
Db :----------------------------------------|*---------------|

REST HERE! Bass goes solo

Eb :----------------|----------------|----------------|----------------|
Bb :----------------|----------------|----------------|----------------|
Gb :----------------|----------------|----------------|----------------|
Db :----------------|----------------|----------------|----------------|
Ab :----------------|----------------|----------------|----------------|
Db :----------------|----------------|----------------|----------------|

Eb :----------------|----------------|----------------|----------------|
Bb :----------------|----------------|----------------|----------------|
Gb :----------------|----------------|----------------|----------------|
Db :----------------|----------------|----------------|----------------|
Ab :----------------|----------------|----------------|----------------|
Db :----------------|----------------|----------------|----------------|

Eb :----------------|----------------|----------------|----------------|
Bb :----------------|----------------|----------------|----------------|
Gb :----------------|----------------|----------------|----------------|
Db :----------------|----------------|----------------|----------------|
Ab :----------------|----------------|----------------|----------------|
Db :----------------|----------------|----------------|----------------|



It's not necessary to play the pedal steel in here, but i added it so
it would make a louder sound.

Eb :----------------|----------------|----------------|--------------------|
Bb :----------------|----------------|----------------|--------------------|
Gb :----------------|----------------|----------------|20---20---20---20---|
Db :----------------|----------------|----------------|-*------------------|
Ab :----------------|----------------|----------------|-*------------------|
Db :----------------|----------------|----------------|-*------------------|

Eb :--------------------|--------------------|--------------------|
Bb :--------------------|--------------------|--------------------|
Gb :20---20---20---20---|20---20---20---20---|20---20---20---20---|
Db :--------------------|--------------------|--------------------|
Ab :--------------------|--------------------|--------------------|
Db :--------------------|--------------------|--------------------|

Eb :--------------------|--------------------|--------------------|
Bb :--------------------|--------------------|--------------------|
Gb :20---19---19---19---|19---19---19---19---|19---19---19---19---|
Db :--------------------|--------------------|--------------------|
Ab :--------------------|--------------------|--------------------|
Db :--------------------|--------------------|--------------------|

Eb :--------------------|--------------------|--------------------|
Bb :--------------------|--------------------|--------------------|
Gb :19---19---19---19---|20---20---20---20---|20---20---20---20---|
Db :--------------------|--------------------|--------------------|
Ab :--------------------|--------------------|--------------------|
Db :--------------------|--------------------|--------------------|

Eb :--------------------|--------------------|--------------------|
Bb :--------------------|--------------------|--------------------|
Gb :20---20---20---20---|20---20---20---20---|20---19---19---19---|
Db :--------------------|--------------------|--------------------|
Ab :--------------------|--------------------|--------------------|
Db :--------------------|--------------------|--------------------|

Eb :--------------------|--------------------|--------------------|
Bb :--------------------|--------------------|--------------------|
Gb :19---19---19---19---|19---19---19---19---|19---19---19---19---|
Db :--------------------|--------------------|--------------------|
Ab :--------------------|--------------------|--------------------|
Db :--------------------|--------------------|--------------------|

Eb :--------------------|--------------------|--------------------|
Bb :--------------------|--------------------|--------------------|
Gb :20---20---20---20---|20---20---20---20---|20---20---20---20---|
Db :--------------------|--------------------|--------------------|
Ab :--------------------|--------------------|--------------------|
Db :--------------------|--------------------|--------------------|

Eb :--------------------|--------------------|--------------------|
Bb :--------------------|--------------------|--------------------|
Gb :20---20---20---20---|20---19---19---19---|19---19---19---19---|
Db :--------------------|--------------------|--------------------|
Ab :--------------------|--------------------|--------------------|
Db :--------------------|--------------------|--------------------|

Eb :--------------------|--------------------|--------------------|
Bb :--------------------|--------------------|--------------------|
Gb :19---19---19---19---|19---19---19---19---|20---20---20---20---|
Db :--------------------|--------------------|--------------------|
Ab :--------------------|--------------------|--------------------|
Db :--------------------|--------------------|--------------------|

Eb :--------------------|--------------------|--------------------|
Bb :--------------------|--------------------|--------------------|
Gb :20---20---20---20---|20---20---20---20---|20---20---20---20---|
Db :--------------------|--------------------|--------------------|
Ab :--------------------|--------------------|--------------------|
Db :--------------------|--------------------|--------------------|

Eb :--------------------|--------------------|--------------------|
Bb :--------------------|--------------------|--------------------|
Gb :20---19---19---19---|19---19---19---19---|19---19---19---19---|
Db :--------------------|--------------------|--------------------|
Ab :--------------------|--------------------|--------------------|
Db :--------------------|--------------------|--------------------|

			(03:36) Play it Fast!

Eb :--------------------|------------------------|------------------------|
Bb :--------------------|------------------------|------------------------|
Gb :19---19---19---19---|-*----------------------|------------------------|
Db :--------------------|10-10-10-10-10-10-10-10-|10-10-10-10-10-10-10-10-|
Ab :--------------------|------------------------|------------------------|
Db :--------------------|------------------------|------------------------|

Eb :------------------------|------------------------|
Bb :------------------------|------------------------|
Gb :------------------------|------------------------|
Db :12-12-12-12-12-12-12-12-|12-12-12-12-12-12-12-12-|
Ab :------------------------|------------------------|
Db :------------------------|------------------------|

Eb :------------------------|------------------------|
Bb :------------------------|------------------------|
Gb :------------------------|------------------------|
Db :13-13-13-13-13-13-13-13-|13-13-13-13-13-13-13-13-|
Ab :------------------------|------------------------|
Db :------------------------|------------------------|

Eb :------------------------|------------------------|
Bb :------------------------|------------------------|
Gb :------------------------|------------------------|
Db :13-13-13-13-13-13-13-13-|13-13-13-13-13-13-13-13-|
Ab :------------------------|------------------------|
Db :------------------------|------------------------|

Eb :------------------------|------------------------|
Bb :------------------------|------------------------|
Gb :-*----------------------|------------------------|
Db :10-10-10-10-10-10-10-10-|10-10-10-10-10-10-10-10-|
Ab :------------------------|------------------------|
Db :------------------------|------------------------|

Eb :------------------------|------------------------|
Bb :------------------------|------------------------|
Gb :------------------------|------------------------|
Db :12-12-12-12-12-12-12-12-|12-12-12-12-12-12-12-12-|
Ab :------------------------|------------------------|
Db :------------------------|------------------------|

Eb :------------------------|------------------------|
Bb :------------------------|------------------------|
Gb :------------------------|------------------------|
Db :13-13-13-13-13-13-13-13-|13-13-13-13-13-13-13-13-|
Ab :------------------------|------------------------|
Db :------------------------|------------------------|

Eb :------------------------|------------------------|
Bb :------------------------|------------------------|
Gb :------------------------|------------------------|
Db :13-13-13-13-13-13-13-13-|13-13-13-13-13-13-13-13-|
Ab :------------------------|------------------------|
Db :------------------------|------------------------|

Eb :------------------------|------------------------|
Bb :------------------------|------------------------|
Gb :-*----------------------|------------------------|
Db :10-10-10-10-10-10-10-10-|10-10-10-10-10-10-10-10-|
Ab :------------------------|------------------------|
Db :------------------------|------------------------|

Eb :------------------------|------------------------|
Bb :------------------------|------------------------|
Gb :------------------------|------------------------|
Db :12-12-12-12-12-12-12-12-|12-12-12-12-12-12-12-12-|
Ab :------------------------|------------------------|
Db :------------------------|------------------------|

Eb :------------------------|------------------------|
Bb :------------------------|------------------------|
Gb :------------------------|------------------------|
Db :13-13-13-13-13-13-13-13-|13-13-13-13-13-13-13-13-|
Ab :------------------------|------------------------|
Db :------------------------|------------------------|

Eb :------------------------|------------------------|
Bb :------------------------|------------------------|
Gb :------------------------|------------------------|
Db :13-13-13-13-13-13-13-13-|13-13-13-13-13-13-13-13-|
Ab :------------------------|------------------------|
Db :------------------------|------------------------|

Eb :------------------------|------------------------|
Bb :------------------------|------------------------|
Gb :-*----------------------|------------------------|
Db :10-10-10-10-10-10-10-10-|10-10-10-10-10-10-10-10-|
Ab :------------------------|------------------------|
Db :------------------------|------------------------|

Eb :------------------------|------------------------|
Bb :------------------------|------------------------|
Gb :------------------------|------------------------|
Db :12-12-12-12-12-12-12-12-|12-12-12-12-12-12-12-12-|
Ab :------------------------|------------------------|
Db :------------------------|------------------------|

Eb :------------------------|------------------------|
Bb :------------------------|------------------------|
Gb :------------------------|------------------------|
Db :13-13-13-13-13-13-13-13-|13-13-13-13-13-13-13-13-|
Ab :------------------------|------------------------|
Db :------------------------|------------------------|


						(04:08) Rest for a bit
Eb :------------------------|------------------------|*---------------|
Bb :------------------------|------------------------|*---------------|
Gb :------------------------|------------------------|*---------------|
Db :15-15-15-15-15-15-15-15-|17-17-17-17-17-17-17-17-|----------------|
Ab :------------------------|------------------------|*---------------|
Db :------------------------|------------------------|*---------------|

Eb :----------------|----------------|----------------|----------------|
Bb :----------------|----------------|----------------|----------------|
Gb :----------------|----------------|----------------|----------------|
Db :----------------|----------------|----------------|----------------|
Ab :----------------|----------------|----------------|----------------|
Db :----------------|----------------|----------------|----------------|

Eb :----------------|----------------|----------------|
Bb :----------------|----------------|----------------|
Gb :----------------|----------------|----------------|
Db :----------------|----------------|----------------|
Ab :----------------|----------------|----------------|
Db :----------------|----------------|----------------|


	(04:16) Then, slowly introduce the last part
Eb :------------------------|------------------------|
Bb :------------------------|------------------------|
Gb :------------------------|------------------------|
Db :10-10-10-10-10-10-10-10-|10-10-10-10-10-10-10-10-|
Ab :------------------------|------------------------|
Db :10-10-10-10-10-10-10-10-|10-10-10-10-10-10-10-10-|

Eb :------------------------|------------------------|
Bb :------------------------|------------------------|
Gb :------------------------|------------------------|
Db :12-12-12-12-12-12-12-12-|12-12-12-12-12-12-12-12-|
Ab :------------------------|------------------------|
Db :12-12-12-12-12-12-12-12-|12-12-12-12-12-12-12-12-|

Eb :------------------------|------------------------|
Bb :------------------------|------------------------|
Gb :------------------------|------------------------|
Db :13-13-13-13-13-13-13-13-|13-13-13-13-13-13-13-13-|
Ab :------------------------|------------------------|
Db :13-13-13-13-13-13-13-13-|13-13-13-13-13-13-13-13-|



							(04:24)


Eb :------------------------|------------------------|15---15---16---16---|
Bb :------------------------|------------------------|--------------------|
Gb :------------------------|------------------------|--------------------|
Db :13-13-13-13-13-13-13-13-|13-13-13-13-13-13-13-13-|-*------------------|
Ab :------------------------|------------------------|--------------------|
Db :13-13-13-13-13-13-13-13-|13-13-13-13-13-13-13-13-|-*------------------|

Eb :13---13---15---15---|11---11---13---13---|10---10---8---8---|
Bb :--------------------|--------------------|------------------|
Gb :--------------------|--------------------|------------------|
Db :--------------------|--------------------|------------------|
Ab :--------------------|--------------------|------------------|
Db :--------------------|--------------------|------------------|

Eb :15---15---16---16---|13---13---15---15---|11---11---13---13---|
Bb :--------------------|--------------------|--------------------|
Gb :--------------------|--------------------|--------------------|
Db :--------------------|--------------------|--------------------|
Ab :--------------------|--------------------|--------------------|
Db :--------------------|--------------------|--------------------|

Eb :10---10---8---8---|15---15---16---16---|13---13---15---15---|
Bb :------------------|--------------------|--------------------|
Gb :------------------|--------------------|--------------------|
Db :------------------|-*------------------|--------------------|
Ab :------------------|--------------------|--------------------|
Db :------------------|-*------------------|--------------------|

Eb :11---11---13---13---|10---10---8---8---|15---15---16---16---|
Bb :--------------------|------------------|--------------------|
Gb :--------------------|------------------|--------------------|
Db :--------------------|------------------|--------------------|
Ab :--------------------|------------------|--------------------|
Db :--------------------|------------------|--------------------|

Eb :13---13---15---15---|11---11---13---13---|10---10---8---8---|
Bb :--------------------|--------------------|------------------|
Gb :--------------------|--------------------|------------------|
Db :--------------------|--------------------|------------------|
Ab :--------------------|--------------------|------------------|
Db :--------------------|--------------------|------------------|

Eb :15---15---16---16---|13---13---15---15---|11---11---13---13---|
Bb :--------------------|--------------------|--------------------|
Gb :--------------------|--------------------|--------------------|
Db :-*------------------|--------------------|--------------------|
Ab :--------------------|--------------------|--------------------|
Db :-*------------------|--------------------|--------------------|

Eb :10---10---8---8---|15---15---16---16---|13---13---15---15---|
Bb :------------------|--------------------|--------------------|
Gb :------------------|--------------------|--------------------|
Db :------------------|--------------------|--------------------|
Ab :------------------|--------------------|--------------------|
Db :------------------|--------------------|--------------------|



Again, pedal steel's not necessary anymore, but... (04:56)

Eb :11---11---13---13---|10---10---8---8---|15---15---16---16---|
Bb :--------------------|------------------|--------------------|
Gb :--------------------|------------------|--------------------|
Db :--------------------|------------------|-*------------------|
Ab :--------------------|------------------|--------------------|
Db :--------------------|------------------|-*------------------|

Eb :13---13---15---15---|11---11---13---13---|10---10---8---8---|
Bb :--------------------|--------------------|------------------|
Gb :--------------------|--------------------|------------------|
Db :--------------------|--------------------|------------------|
Ab :--------------------|--------------------|------------------|
Db :--------------------|--------------------|------------------|

Eb :15---15---16---16---|13---13---15---15---|11---11---13---13---|
Bb :--------------------|--------------------|--------------------|
Gb :--------------------|--------------------|--------------------|
Db :--------------------|--------------------|--------------------|
Ab :--------------------|--------------------|--------------------|
Db :--------------------|--------------------|--------------------|

Eb :10---10---8---8---|13---13---13---13---|13---11---11---11---|
Bb :------------------|-*------------------|--------------------|
Gb :------------------|-*------------------|--------------------|
Db :------------------|-*------------------|--------------------|
Ab :------------------|-*------------------|--------------------|
Db :------------------|-*------------------|--------------------|

Eb :11---11---11---11---|11---8---8---8---|13---13---13---13---|
Bb :--------------------|-----------------|--------------------|
Gb :--------------------|-----------------|--------------------|
Db :--------------------|-----------------|--------------------|
Ab :--------------------|-----------------|--------------------|
Db :--------------------|-----------------|--------------------|

Eb :13---11---11---11---|11---11---11---11---|11---8---8---8---|
Bb :--------------------|--------------------|-----------------|
Gb :--------------------|--------------------|-----------------|
Db :--------------------|--------------------|-----------------|
Ab :--------------------|--------------------|-----------------|
Db :--------------------|--------------------|-----------------|

Eb :13---13---13---13---|13---11---11---11---|11---11---11---11---|
Bb :--------------------|--------------------|--------------------|
Gb :--------------------|--------------------|--------------------|
Db :--------------------|--------------------|--------------------|
Ab :--------------------|--------------------|--------------------|
Db :--------------------|--------------------|--------------------|

Eb :11---8---8---8---|13---13---13---13---|13---11---11---11---|
Bb :-----------------|--------------------|--------------------|
Gb :-----------------|--------------------|--------------------|
Db :-----------------|--------------------|--------------------|
Ab :-----------------|--------------------|--------------------|
Db :-----------------|--------------------|--------------------|

Eb :11---11---11---11---|11---8---8---8---|13---13---13---13---|
Bb :--------------------|-----------------|--------------------|
Gb :--------------------|-----------------|--------------------|
Db :--------------------|-----------------|--------------------|
Ab :--------------------|-----------------|--------------------|
Db :--------------------|-----------------|--------------------|

Eb :13---11---11---11---|11---11---11---11---|11---8---8---8---|
Bb :--------------------|--------------------|-----------------|
Gb :--------------------|--------------------|-----------------|
Db :--------------------|--------------------|-----------------|
Ab :--------------------|--------------------|-----------------|
Db :--------------------|--------------------|-----------------|

Eb :13---13---13---13---|13---11---11---11---|11---11---11---11---|
Bb :--------------------|--------------------|--------------------|
Gb :--------------------|--------------------|--------------------|
Db :--------------------|--------------------|--------------------|
Ab :--------------------|--------------------|--------------------|
Db :--------------------|--------------------|--------------------|

Eb :11---8---8---8---|13---13---13---13---|13---11---11---11---|
Bb :-----------------|--------------------|--------------------|
Gb :-----------------|--------------------|--------------------|
Db :-----------------|--------------------|--------------------|
Ab :-----------------|--------------------|--------------------|
Db :-----------------|--------------------|--------------------|

Eb :11---11---11---11---|11---8---8---8---|13---13---13---13---|
Bb :--------------------|-----------------|--------------------|
Gb :--------------------|-----------------|--------------------|
Db :--------------------|-----------------|--------------------|
Ab :--------------------|-----------------|--------------------|
Db :--------------------|-----------------|--------------------|

Eb :13---11---11---11---|11---11---11---11---|11---8---8---8---|
Bb :--------------------|--------------------|-----------------|
Gb :--------------------|--------------------|-----------------|
Db :--------------------|--------------------|-----------------|
Ab :--------------------|--------------------|-----------------|
Db :--------------------|--------------------|-----------------|

Eb :13---13---13---13---|13---11---11---11---|11---11---11---11---|
Bb :--------------------|--------------------|--------------------|
Gb :--------------------|--------------------|--------------------|
Db :--------------------|--------------------|--------------------|
Ab :--------------------|--------------------|--------------------|
Db :--------------------|--------------------|--------------------|

Eb :11---8---8---8---|13---13---13---13---|13---11---11---11---|
Bb :-----------------|--------------------|--------------------|
Gb :-----------------|--------------------|--------------------|
Db :-----------------|--------------------|--------------------|
Ab :-----------------|--------------------|--------------------|
Db :-----------------|--------------------|--------------------|

Eb :11---11---11---11---|11---8---8---8---|13---13---13---13---|
Bb :--------------------|-----------------|--------------------|
Gb :--------------------|-----------------|--------------------|
Db :--------------------|-----------------|--------------------|
Ab :--------------------|-----------------|--------------------|
Db :--------------------|-----------------|--------------------|

Eb :13---11---11---11---|11---11---11---11---|11---8---8---8---|
Bb :--------------------|--------------------|-----------------|
Gb :--------------------|--------------------|-----------------|
Db :--------------------|--------------------|-----------------|
Ab :--------------------|--------------------|-----------------|
Db :--------------------|--------------------|-----------------|

Eb :13---13---13---13---|13---11---11---11---|11---11---11---11---|
Bb :--------------------|--------------------|--------------------|
Gb :--------------------|--------------------|--------------------|
Db :--------------------|--------------------|--------------------|
Ab :--------------------|--------------------|--------------------|
Db :--------------------|--------------------|--------------------|

Eb :11---8---8---8---|13---13---13---13---|13---11---11---11---|
Bb :-----------------|--------------------|--------------------|
Gb :-----------------|--------------------|--------------------|
Db :-----------------|--------------------|--------------------|
Ab :-----------------|--------------------|--------------------|
Db :-----------------|--------------------|--------------------|

Eb :11---11---11---11---|11---8---8---8---|13---13---13---13---|
Bb :--------------------|-----------------|--------------------|
Gb :--------------------|-----------------|--------------------|
Db :--------------------|-----------------|--------------------|
Ab :--------------------|-----------------|--------------------|
Db :--------------------|-----------------|--------------------|

Eb :13---11---11---11---|11---11---11---11---|11---8---8---8---|
Bb :--------------------|--------------------|-----------------|
Gb :--------------------|--------------------|-----------------|
Db :--------------------|--------------------|-----------------|
Ab :--------------------|--------------------|-----------------|
Db :--------------------|--------------------|-----------------|

Eb :13---13---13---13---|13---11---11---11---|11---11---11---11---|
Bb :--------------------|--------------------|--------------------|
Gb :--------------------|--------------------|--------------------|
Db :--------------------|--------------------|--------------------|
Ab :--------------------|--------------------|--------------------|
Db :--------------------|--------------------|--------------------|

Eb :11---8---8---8---|13---13---13---13---|13---11---11---11---|
Bb :-----------------|--------------------|--------------------|
Gb :-----------------|--------------------|--------------------|
Db :-----------------|--------------------|--------------------|
Ab :-----------------|--------------------|--------------------|
Db :-----------------|--------------------|--------------------|

Eb :11---11---11---11---|11---8---8---8---|8---8---8---8---|
Bb :--------------------|-----------------|----------------|
Gb :--------------------|-----------------|----------------|
Db :--------------------|-----------------|----------------|
Ab :--------------------|-----------------|----------------|
Db :--------------------|-----------------|----------------|

Eb :8---8---8---8---|8---8---8---*---|
Bb :----------------|------------*---|
Gb :----------------|------------*---|
Db :----------------|------------*---|
Ab :----------------|------------*---|
Db :----------------|------------*---|







=================================
=================================
=================================
=================================


FOURTH INSTRUMENT TRACK: BASS



=================================
=================================
=================================
=================================



NOTES: If you feel some notes are misplaced, please Transpose them to 
anothe string, for the "correct" playing method.


(00:00) Bass keeps quiet during intro...

Gb :--------------------------------|--------------------------------|
Db :--------------------------------|--------------------------------|
Ab :--------------------------------|--------------------------------|
Db :--------------------------------|--------------------------------|

                                                                       
Gb :----------------|----------------|----------------|----------------|
Db :----------------|----------------|----------------|----------------|
Ab :----------------|----------------|----------------|----------------|
Db :----------------|----------------|----------------|----------------|

                                     
Gb :----------------|----------------|
Db :----------------|----------------|
Ab :----------------|----------------|
Db :----------------|----------------|

                                                                       
Gb :----------------|----------------|----------------|----------------|
Db :----------------|----------------|----------------|----------------|
Ab :----------------|----------------|----------------|----------------|
Db :----------------|----------------|----------------|----------------|

                                                                       
Gb :----------------|----------------|----------------|----------------|
Db :----------------|----------------|----------------|----------------|
Ab :----------------|----------------|----------------|----------------|
Db :----------------|----------------|----------------|----------------|

                                                                       
Gb :----------------|----------------|----------------|----------------|
Db :----------------|----------------|----------------|----------------|
Ab :----------------|----------------|----------------|----------------|
Db :----------------|----------------|----------------|----------------|

                                                                       
Gb :----------------|----------------|----------------|----------------|
Db :----------------|----------------|----------------|----------------|
Ab :----------------|----------------|----------------|----------------|
Db :----------------|----------------|----------------|----------------|

                                                                       
Gb :----------------|----------------|----------------|----------------|
Db :----------------|----------------|----------------|----------------|
Ab :----------------|----------------|----------------|----------------|
Db :----------------|----------------|----------------|----------------|



           (00:45) plays a small B3...                                      

Gb :----------------|-----------------|----------------|----------------|
Db :----------------|------------10---|------*---------|----------------|
Ab :----------------|-----------------|----------------|----------------|
Db :----------------|-----------------|----------------|----------------|

                                                            

(00:49) and enters majestically

Gb :------------------|------------------|------------------|
Db :------------------|------------------|------------------|
Ab :------------------|------------------|------------------|
Db :10-10-------------|12-12-------------|13-13-------------|

                                                                         
Gb :----------------|------------------|----------------|----------------|
Db :----------------|------------------|----------------|----------------|
Ab :----------------|------------------|----------------|----------------|
Db :8-8-------------|10-10-------------|5-5-------------|1-1-------------|

                    
Gb :----------------|
Db :----------------|
Ab :----------------|
Db :0-0-------------|

                                                            
Gb :------------------|------------------|------------------|
Db :------------------|------------------|------------------|
Ab :------------------|------------------|------------------|
Db :10-10-------------|12-12-------------|13-13-------------|

                                                                         
Gb :----------------|------------------|----------------|----------------|
Db :----------------|------------------|----------------|----------------|
Ab :----------------|------------------|----------------|----------------|
Db :8-8-------------|10-10-------------|5-5-------------|1-1-------------|

                    
Gb :----------------|
Db :----------------|
Ab :----------------|
Db :0-0-------------|


                                                                 
Gb :--------------------|--------------------|--------------------|
Db :--------------------|--------------------|--------------------|
Ab :--------------------|--------------------|--------------------|
Db :10---10---10---10---|12---12---12---12---|13---13---13---13---|

                                                                           
Gb :----------------|--------------------|----------------|----------------|
Db :----------------|--------------------|----------------|----------------|
Ab :----------------|--------------------|----------------|----------------|
Db :8---8---8---8---|10---10---10---10---|5---5---5---5---|1---1---1---1---|

                    
Gb :----------------|
Db :----------------|
Ab :----------------|
Db :0---0---0---0---|

                                                                  
Gb :--------------------|--------------------|--------------------|
Db :--------------------|--------------------|--------------------|
Ab :--------------------|--------------------|--------------------|
Db :10---10---10---10---|12---12---12---12---|13---13---13---13---|

                                                                           
Gb :----------------|--------------------|----------------|----------------|
Db :----------------|--------------------|----------------|----------------|
Ab :----------------|--------------------|----------------|----------------|
Db :8---8---8---8---|10---10---10---10---|5---5---5---5---|1---1---1---1---|

                    
Gb :----------------|
Db :----------------|
Ab :----------------|
Db :0---0---0---0---|



       
(01:38)



                                                                    
Gb :-----------------|-----------------|-----------------|-----------------|
Db :-----------------|-----------------|-----------------|-----------------|
Ab :15---------------|15---------------|15---------------|15---------------|
Db :-----------------|-----------------|-----------------|-----------------|

                                                                           
Gb :-----------------|-----------------|-----------------|-----------------|
Db :-----------------|-----------------|-----------------|-----------------|
Ab :15---------------|15---------------|15---------------|15---------------|
Db :-----------------|-----------------|-----------------|-----------------|

                                                                           
Gb :-----------------|-----------------|-----------------|-----------------|
Db :-----------------|-----------------|-----------------|-----------------|
Ab :15---------------|15---------------|15---------------|15---------------|
Db :-----------------|-----------------|-----------------|-----------------|

                                                                           
Gb :-----------------|-----------------|-----------------|-----------------|
Db :-----------------|-----------------|-----------------|-----------------|
Ab :15---------------|15---------------|15---------------|15---------------|
Db :-----------------|-----------------|-----------------|-----------------|




(02:03)



                                                                          
Gb :-----------------|-----------------|-----------------|----------------|
Db :-----------------|-----------------|-----------------|----------------|
Ab :-----------------|-----------------|-----------------|----------------|
Db :10---------------|12---------------|13---------------|8---------------|

                                                                        
Gb :-----------------|----------------|----------------|----------------|
Db :-----------------|----------------|----------------|----------------|
Ab :-----------------|----------------|----------------|----------------|
Db :10---------------|5---------------|1---------------|0---------------|

                                                                          
Gb :-----------------|-----------------|-----------------|----------------|
Db :-----------------|-----------------|-----------------|----------------|
Ab :-----------------|-----------------|-----------------|----------------|
Db :10---------------|12---------------|13---------------|8---------------|

                                                                        
Gb :-----------------|----------------|----------------|----------------|
Db :-----------------|----------------|----------------|----------------|
Ab :-----------------|----------------|----------------|----------------|
Db :10---------------|5---------------|1---------------|0---------------|




(02:29)



                                                               
Gb :--------------------|-------------------|------------------|
Db :--------------------|-------------------|------------------|
Ab :--------------------|-------------------|------------------|
Db :10---10---10---10---|12---12-------12---|13-----------13---|

                                                           
Gb :----------------|---------------------|----------------|
Db :----------------|---------------------|----------------|
Ab :----------------|---------------------|----------------|
Db :8---------------|10---10-10-10---10---|5-----------5---|


                 
Gb :------------------|-----------------|
Db :------------------|-----------------|
Ab :------------------|-----------------|
Db :13-----------13---|12---------------|






This where the bass
goes solo (02:41)

Slide through every note
                                         

Gb:|-----------------|
Db:|-----------------|
Ab:|-----------------|
Db:|10---------------|
                                         

Gb :-----------------|------------------|----------------|
Db :-----------------|------------------|----------------|
Ab :-----------------|------------------|----------------|
Db :12---------------|13----------------|8---------------|

                                                           
Gb :-------------------|------------------|----------------|
Db :-------------------|------------------|----------------|
Ab :-------------------|------------------|----------------|
Db :10-----------------|5-----------------|1---------------|





                        (02:53)   From now on, it's easy to follow                                      

Gb :-------------------|--------------------|--------------------|
Db :-------------------|--------------------|--------------------|
Ab :-------------------|--------------------|--------------------|
Db :0------------------|10---10---10---10---|10---10---10---10---|

                                                                  
Gb :--------------------|--------------------|--------------------|
Db :--------------------|--------------------|--------------------|
Ab :--------------------|--------------------|--------------------|
Db :10---10---10---10---|10---10---10---10---|10---10---10---10---|

                                                                  
Gb :--------------------|--------------------|--------------------|
Db :--------------------|--------------------|--------------------|
Ab :--------------------|--------------------|--------------------|
Db :10---10---10---10---|10---10---10---10---|10---10---10---10---|

                                                                  
Gb :--------------------|--------------------|--------------------|
Db :--------------------|--------------------|--------------------|
Ab :--------------------|--------------------|--------------------|
Db :10---10---10---10---|10---10---10---10---|10---10---10---10---|

                                                                  
Gb :--------------------|--------------------|--------------------|
Db :--------------------|--------------------|--------------------|
Ab :--------------------|--------------------|--------------------|
Db :10---10---10---10---|10---10---10---10---|10---10---10---10---|

                                             
Gb :--------------------|--------------------|
Db :--------------------|--------------------|
Ab :--------------------|--------------------|
Db :10---10---10---10---|10---10---10---10---|

                                                                  
Gb :--------------------|--------------------|--------------------|
Db :--------------------|--------------------|--------------------|
Ab :--------------------|--------------------|--------------------|
Db :10---10---10---10---|10---10---10---10---|10---10---10---10---|

                                                                  
Gb :--------------------|--------------------|--------------------|
Db :--------------------|--------------------|--------------------|
Ab :--------------------|--------------------|--------------------|
Db :10---10---10---10---|10---10---10---10---|10---10---10---10---|

                                         
Gb :------------------|------------------|
Db :------------------|------------------|
Ab :------------------|------------------|
Db :10---3---8---10---|8---10---13-------|

                                                                  
Gb :--------------------|--------------------|--------------------|
Db :--------------------|--------------------|--------------------|
Ab :--------------------|--------------------|--------------------|
Db :10---10---10---10---|10---10---10---10---|10---10---10---10---|

                                                                  
Gb :--------------------|--------------------|--------------------|
Db :--------------------|--------------------|--------------------|
Ab :--------------------|--------------------|--------------------|
Db :10---10---10---10---|10---10---10---10---|10---10---10---10---|

                                                                  
Gb :--------------------|--------------------|--------------------|
Db :--------------------|--------------------|--------------------|
Ab :--------------------|--------------------|--------------------|
Db :10---10---10---10---|10---10---10---10---|10---10---10---10---|

                                                                  
Gb :--------------------|--------------------|--------------------|
Db :--------------------|--------------------|--------------------|
Ab :--------------------|--------------------|--------------------|
Db :10---10---10---10---|10---10---10---10---|10---10---10---10---|

                                                                
Gb :--------------------|--------------------|------------------|
Db :--------------------|--------------------|------------------|
Ab :--------------------|--------------------|------------------|
Db :10---10---10---10---|10---10---10---10---|10---3---8---10---|

                      
Gb :------------------|
Db :------------------|
Ab :------------------|
Db :8---10---13-------|

                                                            
Gb :--------------------|------------------|----------------|
Db :--------------------|------------------|----------------|
Ab :10---10---11---11---|8---8---10---10---|6---6---8---8---|
Db :--------------------|------------------|----------------|

                                                            
Gb :----------------|--------------------|------------------|
Db :----------------|--------------------|------------------|
Ab :5---5---3---3---|10---10---11---11---|8---8---10---10---|
Db :----------------|--------------------|------------------|

                                                          
Gb :----------------|----------------|--------------------|
Db :----------------|----------------|--------------------|
Ab :6---6---8---8---|5---5---3---3---|10---10---11---11---|
Db :----------------|----------------|--------------------|

                                                        
Gb :------------------|----------------|----------------|
Db :------------------|----------------|----------------|
Ab :8---8---10---10---|6---6---8---8---|5---5---3---3---|
Db :------------------|----------------|----------------|

                                                            
Gb :--------------------|------------------|----------------|
Db :--------------------|------------------|----------------|
Ab :10---10---11---11---|8---8---10---10---|6---6---8---8---|
Db :--------------------|------------------|----------------|

                                                            
Gb :----------------|--------------------|------------------|
Db :----------------|--------------------|------------------|
Ab :5---5---3---3---|10---10---11---11---|8---8---10---10---|
Db :----------------|--------------------|------------------|

                                                          
Gb :----------------|----------------|--------------------|
Db :----------------|----------------|--------------------|
Ab :6---6---8---8---|5---5---3---3---|10---10---11---11---|
Db :----------------|----------------|--------------------|

                                                        
Gb :------------------|----------------|----------------|
Db :------------------|----------------|----------------|
Ab :8---8---10---10---|6---6---8---8---|5---5---3---3---|
Db :------------------|----------------|----------------|

                                                            
Gb :--------------------|------------------|----------------|
Db :--------------------|------------------|----------------|
Ab :10---10---11---11---|8---8---10---10---|6---6---8---8---|
Db :--------------------|------------------|----------------|

                                                            
Gb :----------------|--------------------|------------------|
Db :----------------|--------------------|------------------|
Ab :5---5---3---3---|10---10---11---11---|8---8---10---10---|
Db :----------------|--------------------|------------------|

                                                          
Gb :----------------|----------------|--------------------|
Db :----------------|----------------|--------------------|
Ab :6---6---8---8---|5---5---3---1---|--------------------|
Db :----------------|----------------|12---12---13---13---|

                                                            
Gb :--------------------|------------------|----------------|
Db :--------------------|------------------|----------------|
Ab :--------------------|------------------|----------------|
Db :10---10---12---12---|8---8---10---10---|6---6---5---3---|

                                                                
Gb :--------------------|--------------------|------------------|
Db :--------------------|--------------------|------------------|
Ab :--------------------|--------------------|------------------|
Db :12---12---13---13---|10---10---12---12---|8---8---10---10---|

                                                              
Gb :----------------|--------------------|--------------------|
Db :----------------|--------------------|--------------------|
Ab :----------------|--------------------|--------------------|
Db :6---6---5---3---|12---12---13---13---|10---10---12---12---|

                                                            
Gb :------------------|----------------|--------------------|
Db :------------------|----------------|--------------------|
Ab :------------------|----------------|--------------------|
Db :8---8---10---10---|6---6---5---3---|12---12---13---13---|

                                                            
Gb :--------------------|------------------|----------------|
Db :--------------------|------------------|----------------|
Ab :--------------------|------------------|----------------|
Db :10---10---12---12---|8---8---10---10---|6---6---5---3---|

                                                                  
Gb :--------------------|--------------------|--------------------|
Db :--------------------|--------------------|--------------------|
Ab :--------------------|--------------------|--------------------|
Db :10---10---10---10---|10---10---10---10---|10---10---10---10---|

                                                                  
Gb :--------------------|--------------------|--------------------|
Db :--------------------|--------------------|--------------------|
Ab :--------------------|--------------------|--------------------|
Db :10---10---10---10---|10---10---10---10---|10---10---10---10---|

                                         
Gb :------------------|------------------|
Db :------------------|------------------|
Ab :------------------|------------------|
Db :10---3---8---10---|8---10---13-------|

                                                                  
Gb :--------------------|--------------------|--------------------|
Db :--------------------|--------------------|--------------------|
Ab :--------------------|--------------------|--------------------|
Db :10---10---10---10---|10---10---10---10---|10---10---10---10---|

                                                                  
Gb :--------------------|--------------------|--------------------|
Db :--------------------|--------------------|--------------------|
Ab :--------------------|--------------------|--------------------|
Db :10---10---10---10---|10---10---10---10---|10---10---10---10---|

                                                                  
Gb :--------------------|--------------------|--------------------|
Db :--------------------|--------------------|--------------------|
Ab :--------------------|--------------------|--------------------|
Db :13---13---15---15---|12---12---10---10---|10---10---10---10---|

                                                                  
Gb :--------------------|--------------------|--------------------|
Db :--------------------|--------------------|--------------------|
Ab :--------------------|--------------------|--------------------|
Db :10---10---10---10---|10---10---10---10---|10---10---10---10---|

                                                                
Gb :--------------------|--------------------|------------------|
Db :--------------------|--------------------|------------------|
Ab :--------------------|--------------------|------------------|
Db :10---10---10---10---|10---10---10---10---|10---3---8---10---|

                                                                
Gb :------------------|--------------------|--------------------|
Db :------------------|--------------------|--------------------|
Ab :------------------|--------------------|--------------------|
Db :8---10---13-------|10---10---10---10---|10---10---10---10---|

                                                                  
Gb :--------------------|--------------------|--------------------|
Db :--------------------|--------------------|--------------------|
Ab :--------------------|--------------------|--------------------|
Db :10---10---10---10---|10---10---10---10---|10---10---10---10---|

                                                                  
Gb :--------------------|--------------------|--------------------|
Db :--------------------|--------------------|--------------------|
Ab :--------------------|--------------------|--------------------|
Db :10---10---10---10---|13---13---15---15---|12---12---10---10---|

                                                                  


After playing that long bassline here's the final part:


(04:56)


        
Gb :-----------------|-----------------|-----------------|----------------|
Db :-----------------|-----------------|-----------------|----------------|
Ab :-----------------|-----------------|-----------------|----------------|
Db :15---------------|------------13---|17---------------|----------------|

                                                                       
Gb :----------------|----------------|----------------|----------------|
Db :----------------|----------------|----------------|----------------|
Ab :----------------|----------------|6---------------|--------6---7---|
Db :8---------------|------------8---|----------------|----8---*-------|

                                                                       
Gb :----------------|----------------|----------------|----------------|
Db :----------------|----------------|----------------|----------------|
Ab :8---------------|----------------|----------------|----------------|
Db :----------------|----------------|5---------------|----------------|

                                                                       
Gb :----------------|----------------|----------------|----------------|
Db :----------------|----------------|----------------|----------------|
Ab :----------------|----------------|6---------------|----------------|
Db :8---------------|----------*-8---|----------------|----------------|

                                                                       
Gb :----------------|----------------|----------------|----------------|
Db :----------------|----------------|----------------|----------------|
Ab :8---------------|----6---8-------|----------------|----------------|
Db :----------------|--------------*-|5---------------|----------------|

                                                                       
Gb :----------------|----------------|----------------|----------------|
Db :----------------|----------------|----------------|----------------|
Ab :----------------|----------------|6---------------|--------6---7---|
Db :8---------------|----------*-8---|----------------|----8---*-------|

                                                                       
Gb :----------------|----------------|----------------|----------------|
Db :----------------|----------------|----------------|----------------|
Ab :8---------------|----------------|----------------|----------------|
Db :----------------|----------------|5---------------|----------------|

                                                                       
Gb :----------------|----------------|----------------|----------------|
Db :----------------|----------------|----------------|----------------|
Ab :----------------|----------------|6---------------|5---------------|
Db :8---------------|------------*---|----------------|----------------|

                                                                       
Gb :----------------|----------------|----------------|----------------|
Db :----------------|----------------|----------------|----------------|
Ab :8---------------|------------6---|----------------|----------------|
Db :----------------|----------------|5---------------|------------5-*-|

                                                                       
Gb :----------------|----------------|----------------|----------------|
Db :----------------|----------------|----------------|----------------|
Ab :----------------|----------------|6---------------|--------6-*-7-*-|
Db :8---------------|------------8-*-|----------------|----8---*-------|

                                                                       
Gb :----------------|----------------|----------------|----------------|
Db :----------------|----------------|----------------|----------------|
Ab :8---------------|----------------|----------------|----------------|
Db :----------------|----------------|5---------------|----------------|

                                                                       
Gb :----------------|----------------|----------------|----------------|
Db :----------------|----------------|----------------|----------------|
Ab :----------------|----------------|6---------------|----------------|
Db :8---------------|----------*-8-*-|----------------|----------------|

                                                                       
Gb :----------------|----------------|----------------|----------------|
Db :----------------|----------------|----------------|----------------|
Ab :8---------------|----------------|----------------|----------------|
Db :----------------|----------------|5---------------|----------------|

                                                                       
Gb :----------------|----------------|----------------|----------------|
Db :----------------|----------------|----------------|----------------|
Ab :----------------|----------------|6---------------|5---------------|
Db :8---------------|------------8-*-|----------------|----------------|

                                                                       
Gb :----------------|----------------|----------------|----------------|
Db :----------------|----------------|----------------|----------------|
Ab :8---------------|----6---8---6---|----------------|----------------|
Db :----------------|----------------|5---------------|----------------|

                                                                       
Gb :----------------|----------------|----------------|----------------|
Db :----------------|----------------|----------------|----------------|
Ab :----------------|----------------|6---------------|----------------|
Db :8---------------|------------8-*-|----------------|----------------|

                                                               









=================================
=================================
=================================
=================================


FIFTH INSTRUMENT TRACK: DRUMS



=================================
=================================
=================================
=================================







holy crap, it's been a long tab, hasn't it?
Drums are pretty easy, just follow the next notes:

Ok, the drums are tabbed in midi form.
So, they're tracked on channel 10, and the sixth string has note 35 
assigned to it, the fifth one has note 38, the third one has note 42 
and so on. 

The first thing to play, is an 8 and a 1. this means that the FIRST string
will play note 57 (49+8=57) which is a crash cymbal. The SIXTH string will
play note 36 (35+1=36), a bass/kick drum. This is some pretty easy and 
basic stuff, since a lot of sequencers/Tabing programs use midi channels 
like this.


But anyways, let me give you a small chart of the meaning of these notes:


49:   8 = Crash cymbal  0 = 2nd. Crash cymbal  4 = Ride Bell   2 = Ride Cymbal
35:   7 = Pedal Hi-Hat  11 = Open Hi- Hat
46:   0 = Open Hi-Hat   9 = splash cymbal 
42:   0 = closed hi-hat
38:   2 = snare         3 = Lo Tom             5 = Mid Tom
35:   1 = Bass Drum


I think That's enough chaos, madness and confusion. If you can't follow
the next tab, then i bet you can't eat by yourself. Just listen
to the damn song, practice and get it yourself. You have to listen to it
anyway to get all those velocity effects going ;)

                                        
49 :8--------------------------------|----------------|-------------------|
35 :--------7-------7-------7--------|7---7---7---7---|7---7---7---7------|
46 :---------------------------------|----------------|-------------------|
42 :--------0-------0-------0--------|0---0---0---0---|0---0---0---0------|
38 :----2-----------2-----------2-2-2|--2---------2-2-|--2-----2-----2-2-2|
35 :1-----------1--------------------|1-----1---1-----|1-----1------------|

                                                         
49 :----------------|-------------------|----------------|
35 :7---7---7---7---|7---7---7---7------|7---7---7---7---|
46 :----------------|-------------------|----------------|
42 :0---0---0---0---|0---0---0---0------|0---0---0---0---|
38 :--2---------2---|--2-----2-----2-2-2|--2---------2-2-|
35 :1-----1---1-----|1-----1------------|1-----1---1-----|

                                           
49 :-------------------|-------------------|
35 :7---7---7---7------|7---7---7---(11)---|
46 :-------------------|-------------------|
42 :0---0---0---0------|0---0---0----------|
38 :--2-----2-----2-2-2|--2-----------2----|
35 :1-----1------------|1-----1---1--------|

                                                            
49 :-------------------|----------------|-------------------|
35 :7---7---7---7------|7---7---7---7---|9---7---7---7------|
46 :-------------------|----------------|-------------------|
42 :0---0---0---0------|0---0---0---0---|2---0---0---0------|
38 :--2-----2-----2-2-2|--2---------2-2-|--2-----2-----2-2-2|
35 :1-----1------------|1-----1---1-----|1-----1------------|

                                                         
49 :----------------|-------------------|----------------|
35 :7---7---7---7---|7---7---7---7------|7---7---7---7---|
46 :----------------|-------------------|----------------|
42 :0---0---0---0---|0---0---0---0------|0---0---0---0---|
38 :--2---------2---|--2-----2-----2-2-2|--2---------2-2-|
35 :1-----1---1-----|1-----1------------|1-----1---1-----|

                                           
49 :-------------------|-------------------|
35 :7---7---7---7------|7---7---7---(11)---|
46 :-------------------|-------------------|
42 :0---0---0---0------|0---0---0-----0----|
38 :--2-----2-----2-2-2|--2-----------2----|
35 :1-----1------------|1-----1---1--------|

                                                            
49 :-------------------|----------------|-------------------|
35 :7---7---7---7------|7---7---7---7---|9---7---7---7------|
46 :-------------------|----------------|-------------------|
42 :0---0---0---0------|0---0---0---0---|2---0---0---0------|
38 :--2-----2-----2-2-2|--2---------2-2-|--2-----2-----2-2-2|
35 :1-----1------------|1-----1---1-----|1-----1------------|

                                                         
49 :----------------|-------------------|----------------|
35 :7---7---7---7---|7---7---7---7------|7---7---7---7---|
46 :----------------|-------------------|----------------|
42 :0---0---0---0---|0---0---0---0------|0---0---0---0---|
38 :--2---------2---|--2-----2-----2-2-2|--2---------2-2-|
35 :1-----1---1-----|1-----1------------|1-----1---1-----|

                                           
49 :-------------------|-------------------|
35 :7---7---7---7------|7---7---7---(11)---|
46 :-------------------|-------------------|
42 :0---0---0---0------|0---0---0-----0----|
38 :--2-----2-----2-2-2|--2-----------2----|
35 :1-----1------------|1-----1---1--------|

                                                            
49 :-------------------|----------------|-------------------|
35 :7---7---7---7------|7---7---7---7---|9---7---7---7------|
46 :-------------------|----------------|-------------------|
42 :0---0---0---0------|0---0---0---0---|2---0---0---0------|
38 :--2-----2-----2-2-2|--2---------2-2-|--2-----2-----2-2-2|
35 :1-----1------------|1-----1---1-----|1-----1------------|

                                                         
49 :----------------|-------------------|----------------|
35 :7---7---7---7---|7---7---7---7------|7---7---7---7---|
46 :----------------|-------------------|----------------|
42 :0---0---0---0---|0---0---0---0------|0---0---0---0---|
38 :--2---------2---|--2-----2-----2-2-2|--2---------2-2-|
35 :1-----1---1-----|1-----1------------|1-----1---1-----|

                                           
49 :-------------------|-------------------|
35 :7---7---7---7------|7---7---7---(11)---|
46 :-------------------|-------------------|
42 :0---0---0---0------|0---0---0-----0----|
38 :--2-----2-----2-2-2|--2-----------2----|
35 :1-----1------------|1-----1---1--------|

                                                                        
49 :-0---------------|----------------|----------------|----------------|
35 :-----------------|----------------|----------------|----------------|
46 :-----0---0---0---|0---0---0---0---|0---0---0---0---|0---0---0---0---|
42 :15---------------|----------------|----------------|----------------|
38 :---------2-------|--------2-------|--------2-------|--------2---2---|
35 :-1-----1-----1---|1-1---1---------|1-1---1-----1---|1-1---1---1-----|

                                                      
49 :0---------------|----------------|----------------|
35 :----------------|----------------|----------------|
46 :0---0---0---0---|0---0---0---0---|0---0---0---0---|
42 :----------------|----------------|----------------|
38 :--------2-------|--------2-------|--------2-------|
35 :1-----1-----1---|1-1---1---------|1-1---1-----1---|

                            
49 :------------------------|
35 :-----------------9------|
46 :0---0---0---------------|
42 :-----------------2------|
38 :--------2-2-2-(2)2-2-2-2|
35 :1-1---1-----------------|

                                                                        
49 :-0---------------|----------------|----------------|----------------|
35 :-----------------|----------------|----------------|----------------|
46 :-----0---0---0---|0---0---0---0---|0---0---0---0---|0---0---0---0---|
42 :15---------------|----------------|----------------|----------------|
38 :-2-------2-------|--------2-------|--------2-------|--------2---2---|
35 :-1-----1-----1---|1-1---1---------|1-1---1-----1---|1-1---1---1-----|

                                                                           
49 :0---------------|----------------|----------------|--------------------|
35 :----------------|----------------|----------------|--------------------|
46 :0---0---0---0---|0---0---0---0---|0---0---0---0---|0---0---0-------0---|
42 :----------------|----------------|----------------|--------------------|
38 :2-------2-------|--------2-------|--------2-------|--------2-2-2-2-2---|
35 :1-----1-----1---|1-1---1---------|1-1---1-----1---|1-1---1---1-------1-|

                                                                        
49 :-0---------------|----------------|----------------|----------------|
35 :-----------------|----------------|----------------|----------------|
46 :-----0---0---0---|0---0---0---0---|0---0---0---0---|0---0---0---0---|
42 :15---------------|----------------|----------------|----------------|
38 :-2-------2-------|--------2-------|--------2-------|--------2---2---|
35 :-1-----1-----1---|1-1---1---------|1-1---1-----1---|1-1---1---1-----|

                                                      
49 :0---------------|----------------|----------------|
35 :----------------|----------------|----------------|
46 :0---0---0---0---|0---0---0---0---|0---0---0---0---|
42 :----------------|----------------|----------------|
38 :2-------2-------|--------2-------|--------2-----2-|
35 :1-----1-----1---|1-1---1---------|1-1---1-----1---|

                              
49 :--------------------------|
35 :--------------------------|
46 :0-------0-----0-------0---|
42 :--------------------------|
38 :--2-2-2-2-2-----2-2-2---2-|
35 :1-1---------1---1-----1-1-|

                                                                        
49 :-0---------------|----------------|----------------|----------------|
35 :-----------------|----------------|----------------|----------------|
46 :-----0---0---0---|0---0---0---0---|0---0---0---0---|0---0---0---0---|
42 :15---------------|----------------|----------------|----------------|
38 :-2-------2-------|--------2-------|--------2-------|--------2---2---|
35 :-1-----1-----1---|1-1---1---------|1-1---1-----1---|1-1---1---1-----|

                                                                           
49 :0---------------|----------------|----------------|--------------------|
35 :----------------|----------------|----------------|--------------------|
46 :0---0---0---0---|0---0---0---0---|0---0---0---0---|0---0---0-------0---|
42 :----------------|----------------|----------------|--------------------|
38 :2-------2-------|--------2-------|--------2-------|--2-----2-2-2-2-2---|
35 :1-----1-----1---|1-1---1---------|1-1---1-----1---|1-1---1---1-------1-|

                                                                       
49 :8-------4---4---|4---4---4---4---|4---4---4---4---|4---4---4---4---|
35 :----------------|----------------|----------------|----------------|
46 :----------------|----------------|9---------------|----------------|
42 :----------------|----------------|----------------|----------------|
38 :--------2-------|--------------2-|--------2-------|--------------2-|
35 :1-----1-----1---|1-----1---1-----|1-----1-----1---|1-----1---1-----|

                                                                       
49 :4---4---4---4---|4---4---4---4---|4---4---4---4---|4---4---4---4---|
35 :----------------|----------------|----------------|----------------|
46 :9---------------|----------------|9---------------|----------------|
42 :----------------|----------------|----------------|----------------|
38 :--------2-------|--------------2-|--------2-------|--------------2-|
35 :1-----1-----1---|1-----1---1-----|1-----1-----1---|1-----1---1-----|

                                                                       
49 :4---4---4---4---|4---4---4---4---|4---4---4---4---|4---4---4---4---|
35 :----------------|----------------|----------------|----------------|
46 :9---------------|----------------|9---------------|----------------|
42 :----------------|----------------|----------------|----------------|
38 :--------2-------|--------------2-|--------2-------|--------------2-|
35 :1-----1-----1---|1-----1---1-----|1-----1-----1---|1-----1---1-----|

                                                                       
49 :4---4---4---4---|4---4---4---4---|4---4---4---4---|4---4---4---4---|
35 :----------------|----------------|----------------|----------------|
46 :9---------------|----------------|9---------------|----------------|
42 :----------------|----------------|----------------|----------------|
38 :--------2-------|--------------2-|--------2-------|--------2-3-3-2-|
35 :1-----1-----1---|1-----1---1-----|1-----1-----1---|1-1---1---1-1---|

                                                                       
49 :8-------4---4---|4---4---4---4---|4---4---4---4---|4---4---4---4---|
35 :----------------|----------------|----------------|----------------|
46 :----------------|----------------|9---------------|----------------|
42 :----------------|----------------|----------------|----------------|
38 :--------2-------|--------------2-|--------2-------|--------------2-|
35 :1-----1-----1---|1-----1---1-----|1-----1-----1---|1-----1---1-----|

                                                                       
49 :4---4---4---4---|4---4---4---4---|4---4---4---4---|4---4---4---4---|
35 :----------------|----------------|----------------|----------------|
46 :9---------------|----------------|9---------------|----------------|
42 :----------------|----------------|----------------|----------------|
38 :--------2-------|--------------2-|--------2-------|--------------2-|
35 :1-----1-----1---|1-----1---1-----|1-----1-----1---|1-----1---1-----|

                                                                       
49 :4---4---4---4---|4---4---4---4---|4---4---4---4---|4---4---4---4---|
35 :----------------|----------------|----------------|----------------|
46 :9---------------|----------------|9---------------|----------------|
42 :----------------|----------------|----------------|----------------|
38 :--------2-------|--------------2-|--------2-------|--------------2-|
35 :1-----1-----1---|1-----1---1-----|1-----1-----1---|1-----1---1-----|

                                                                         
49 :4---4---4---4---|4---4---4---4---|4---4---4---4---|4---4-------------|
35 :----------------|----------------|----------------|------------------|
46 :9---------------|----------------|9---------------|--------9---------|
42 :----------------|----------------|----------------|------------------|
38 :--------2-------|--------------2-|--------2-------|--------2---3-3-3-|
35 :1-----1-----1---|1-----1---1-----|1-----1-----1---|1-1---1-----1-----|

                                                                       
49 :8---2---2---2---|2---2---2---2---|2---2---2---2---|2---2---2---2---|
35 :----------------|----------------|----------------|----------------|
46 :9---9---9---9---|9---9---9---9---|9---9---9---9---|9---9---9---9---|
42 :----------------|----------------|----------------|----------------|
38 :--------2-------|--------------2-|--------2-------|--------------2-|
35 :1-----1-----1---|1-----1---1-----|1-----1-----1---|1-----1---1-----|

                                                                         
49 :2---2---2---2---|2---2---2---2---|2---2---2---2---|2---2---2---2-----|
35 :----------------|----------------|----------------|------------------|
46 :9---9---9---9---|9---9---9---9---|9---9---9---9---|9---9---9---9-----|
42 :----------------|----------------|----------------|------------------|
38 :--------2-------|--------------2-|--------2-------|--------2---5-5-3-|
35 :1-----1-----1---|1-----1---1-----|1-----1-----1---|1-----1---1-------|

                                                                       
49 :8---------------|----------------|----------------|----------------|
35 :----------------|----------------|----------------|----------------|
46 :9---------------|----------------|----------------|----------------|
42 :----------------|----------------|----------------|----------------|
38 :----------------|----------------|----------------|----------------|
35 :----------------|----------------|----------------|----------------|

                                                                       
49 :----------------|----------------|----------------|----------------|
35 :----------------|----------------|----------------|----------------|
46 :----------------|----------------|----------------|----------------|
42 :----------------|----------------|----------------|----------------|
38 :----------------|----------------|----------------|----------------|
35 :----------------|----------------|----------------|----------------|

                                                            
49 :------------------|------------------|------------------|
35 :------------------|------------------|------------------|
46 :--------9---(9)9-9|--------9---(9)9-9|--------9---(9)9-9|
42 :------------------|------------------|------------------|
38 :------------------|------------------|------------------|
35 :------------------|------------------|------------------|

                                                            
49 :------------------|------------------|------------------|
35 :------------------|------------------|------------------|
46 :--------9---(9)9-9|--------9---(9)9-9|--------9---(9)9-9|
42 :------------------|------------------|------------------|
38 :------------------|------------------|------------------|
35 :------------------|------------------|------------------|

                                                                           
49 :------------------|------------------|8-------6-------|6-------6-------|
35 :------------------|------------------|----------------|----------------|
46 :--------9---(9)9--|------------------|9-------0-------|0-------0-------|
42 :------------------|----------1-1-----|----------------|----------------|
38 :------------------|2-2---2-2-3-5-2-2-|----------------|2---------------|
35 :-----------------1|------------------|1---1-----------|----1-------1---|

                                                                       
49 :6-------6-------|6-------6-------|6-------6-------|6-------6-------|
35 :----------------|----------------|----------------|----------------|
46 :0-------0-------|0-------0-------|0-------0-------|0-------0-------|
42 :----------------|----------------|----------------|----------------|
38 :----------------|2-------2-------|----------------|2---------------|
35 :----1-------1---|----1-------1---|1-------1-------|----1---1-------|

                                     
49 :6-------6-------|6---6---6---6---|
35 :----------------|----7-------7---|
46 :0-------0-------|0-------0-------|
42 :----------------|----------------|
38 :----2-----------|------------2---|
35 :----------------|1---------------|

                                                                       
49 :6-------6-------|6-------6-------|6-------6-------|6-------6-------|
35 :----------------|----------------|----------------|----------------|
46 :0-------0-------|0-------0-------|0-------0-------|0-------0-------|
42 :----------------|----------------|----------------|----------------|
38 :--------2-------|2---------------|----------------|2-------2-------|
35 :1---1-------1---|----1-------1---|----1-------1---|----1-------1---|

                                                                       
49 :6-------6-------|6-------6-------|6-------6-------|6---6---6---6---|
35 :----------------|----------------|----------------|----7-------7---|
46 :0-------0-------|0-------0-------|0-------0-------|0-------0-------|
42 :----------------|----------------|----------------|----------------|
38 :----------------|2---------------|----2-----------|------------2---|
35 :1-------1-------|----1---1-------|----------------|1---------------|

                                                                       
49 :8-------6-------|6-------6-------|6-------6-------|6-------6-------|
35 :----------------|----------------|----------------|----------------|
46 :9-------0-------|0-------0-------|0-------0-------|0-------0-------|
42 :----------------|----------------|----------------|----------------|
38 :----------------|2---------------|----------------|2-------2-------|
35 :1---1-----------|----1-------1---|----1-------1---|----1-------1---|

                                                                       
49 :6-------6-------|6-------6-------|6-------6-------|6---6---6---6---|
35 :----------------|----------------|----------------|----7-------7---|
46 :0-------0-------|0-------0-------|0-------0-------|0-------0-------|
42 :----------------|----------------|----------------|----------------|
38 :----------------|2---------------|----2-----------|------------2---|
35 :1-------1-------|----1---1-------|----------------|1---------------|

                                                                       
49 :6-------6-------|6-------6-------|6-------6-------|6-------6-------|
35 :----------------|----------------|----------------|----------------|
46 :0-------0-------|0-------0-------|0-------0-------|0-------0-------|
42 :----------------|----------------|----------------|----------------|
38 :--------2-------|2---------------|----------------|2-------2-------|
35 :1---1-------1---|----1-------1---|----1-------1---|----1-------1---|

                                                                       
49 :6-------6-------|6-------6---6---|6-------6-------|6---6---6---6---|
35 :----------------|----------------|----------------|6---7-------7---|
46 :0-------0-------|0-------0---0---|0-------0-------|0-------0-------|
42 :----------------|----------------|----------------|----------------|
38 :----------------|2-------2---2---|----2---2---5-3-|3-------2-------|
35 :1-------1-------|----1---1---1---|------------8-8-|1---1-------1---|

                                                            
49 :-0--------0-------|-0--------0-------|-0--------0-------|
35 :------------------|------------------|------------------|
46 :11-------11-------|11-------11-------|11-------11-------|
42 :------------------|------------------|------------------|
38 :------------------|-2----------------|------------------|
35 :-1----------------|-----1----1---1---|-1----------------|

                                                            
49 :-0--------0-------|-0--------0-------|-0--------0-------|
35 :------------------|------------------|------------------|
46 :11-------11-------|11-------11-------|11-------11-------|
42 :------------------|------------------|------------------|
38 :-2--------2-------|------------------|-2----------------|
35 :-1---1----1---1---|-1----------------|-----1----1---1---|

                                                              
49 :-0--------0-------|-0--------0---------|-0--------0-------|
35 :------------------|--------------------|------------------|
46 :11-------11-------|11-------11---------|11-------11-------|
42 :------------------|--------------------|------------------|
38 :------------------|-2--------2---2-5-3-|------------------|
35 :-1----------------|-1---1----1---------|-1---1--------1---|

                                                            
49 :-0--------0-------|-0--------0-------|-0--------0-------|
35 :------------------|------------------|------------------|
46 :11-------11-------|11-------11-------|11-------11-------|
42 :------------------|------------------|------------------|
38 :-2----------------|------------------|-2--------2-------|
35 :----------1-------|-1---1--------1---|-1---1----1---1---|

                                                            
49 :-0--------0-------|-0--------0-------|-0--------0-------|
35 :------------------|------------------|------------------|
46 :11-------11-------|11-------11-------|11-------11-------|
42 :------------------|------------------|------------------|
38 :------------------|-2----------------|------------------|
35 :-1----------------|-----1----1---1---|-1----------------|

                                                                  
49 :-0------------0---------|-0--------0-------|-0--------0-------|
35 :------------------------|------------------|------------------|
46 :11-----------11---------|11-------11-------|11-------11-------|
42 :------------------------|------------------|------------------|
38 :-2-2---3-3----2---5-3---|------------------|-2----------------|
35 :-1-----1-1----1---------|-1---1--------1---|-----1----1---1---|

                                                            
49 :-0--------0-------|-0--------0-------|-0--------0-------|
35 :------------------|------------------|------------------|
46 :11-------11-------|11-------11-------|11-------11-------|
42 :------------------|------------------|------------------|
38 :------------------|-2--------2-------|------------------|
35 :-1----------------|-1---1----1---1---|-1---1--------1---|

                                                            
49 :-0--------0-------|-0--------0-------|-0--------0-------|
35 :------------------|------------------|-----8-6----------|
46 :11-------11-------|11-------11-------|11-------11-------|
42 :------------------|------------------|------------------|
38 :-2----------------|------------------|-2---3-3--2---2---|
35 :-----1----1---1---|-1----------------|-1---1-1--1-------|

                                                            
49 :-0--------0-------|-0--------0-------|-0--------0-------|
35 :------------------|------------------|------------------|
46 :11-------11-------|11-------11-------|11-------11-------|
42 :------------------|------------------|------------------|
38 :------------------|-2----------------|------------------|
35 :-1---1--------1---|-----1----1---1---|-1----------------|

                                                            
49 :-0--------0-------|-0--------0-------|-0--------0-------|
35 :------------------|------------------|------------------|
46 :11-------11-------|11-------11-------|11-------11-------|
42 :------------------|------------------|------------------|
38 :-2--------2-------|------------------|-2----------------|
35 :-1---1----1-------|-1---1--------1---|-----1----1---1---|

                                                               
49 :-0--------0-------|-0--------0-----------|-6---------------|
35 :------------------|----------------------|14---------------|
46 :11-------11-------|11-------11-----------|11---------------|
42 :------------------|----------------------|-----------------|
38 :------------------|-2--------3-3---3-3---|-----------------|
35 :-1----------------|-1---1----1-----1-----|-1---------------|

                                                                       
49 :----------------|----------------|----2---2---2---|2---------------|
35 :--------7-------|--------7-------|--------7-------|--------7-------|
46 :----------------|----------------|----------------|----------------|
42 :--------0-------|--------0-------|----------------|--------0-------|
38 :----------------|----------------|----------------|----------------|
35 :----------------|----------------|----------------|----------------|

                                                                       
49 :----------------|----------------|----2---2---2---|2---------------|
35 :--------7-------|--------7-------|--------7-------|--------7-------|
46 :----------------|----------------|----------------|----------------|
42 :--------0-------|--------0-------|----------------|--------0-------|
38 :----------------|----------------|----------------|----------------|
35 :----------------|----------------|----------------|----------------|

                                                                       
49 :----------------|----------------|----2---2---2---|2---------------|
35 :--------7-------|--------7-------|--------7-------|--------7-------|
46 :----------------|----------------|----------------|----------------|
42 :--------0-------|--------0-------|----------------|--------0-------|
38 :----------------|----------------|----------------|----------------|
35 :----------------|----------------|----------------|----------------|

                                                            
49 :----------------|----6-----6---------|------------------|
35 :--------7-------|----------------8-6-|6---8-6-8---------|
46 :----------------|--------------------|------------------|
42 :--------0-------|--------------------|------------------|
38 :----------------|----2-2---2-2---5-5-|3---5-5-2-2---3---|
35 :----------------|----1-----1-----1---|8---1---8-----1---|

                                                            
49 :-0--------0-------|-0--------0-------|-0--------0-------|
35 :------------------|------------------|------------------|
46 :11-------11-------|11-------11-------|11-------11-------|
42 :------------------|------------------|------------------|
38 :------------------|-2----------------|------------------|
35 :-1---1--------1---|-----1----1---1---|-1----------------|

                                                            
49 :-0--------0-------|-0--------0-------|-0--------0-------|
35 :------------------|------------------|------------------|
46 :11-------11-------|11-------11-------|11-------11-------|
42 :------------------|------------------|------------------|
38 :-2--------2-------|------------------|-2----------------|
35 :-1---1--------1---|-1---1--------1---|-----1----1---1---|

                                         
49 :-0--------0-------|-0--------0-------|
35 :------------------|------------------|
46 :11-------11-------|11-------11-------|
42 :------------------|------------------|
38 :------------------|-2--------2-------|
35 :-1----------------|-1---1----1---1---|

                                                            
49 :-0--------0-------|-0--------0-------|-0--------0-------|
35 :------------------|------------------|------------------|
46 :11-------11-------|11-------11-------|11-------11-------|
42 :------------------|------------------|------------------|
38 :------------------|-2----------------|------------------|
35 :-1---1--------1---|-----1----1---1---|-1----------------|

                                                            
49 :-0--------0-------|-0--------0-------|-0--------0-------|
35 :------------------|------------------|------------------|
46 :11-------11-------|11-------11-------|11-------11-------|
42 :------------------|------------------|------------------|
38 :-2--------2-------|------------------|-2----------------|
35 :-1---1--------1---|-1---1--------1---|-----1----1---1---|

                                                               
49 :-0--------0--------|-0--------0---------|-0--------0-------|
35 :----------8-6-8----|-8---6--------------|------------------|
46 :11-------11--------|11-------11---------|11-------11-------|
42 :-------------------|--------------------|------------------|
38 :-----2----5-3-3----|-5---5----2-2---3---|------------------|
35 :-1--------1--------|-1---1----1-----1---|-1---1--------1---|

                                                            
49 :-0--------0-------|-0--------0-------|-0--------0-------|
35 :------------------|------------------|------------------|
46 :11-------11-------|11-------11-------|11-------11-------|
42 :------------------|------------------|------------------|
38 :-2----------------|------------------|-2--------2-------|
35 :-----1----1---1---|-1----------------|-1---1--------1---|

                                                            
49 :-0--------0-------|-0--------0-------|-0--------0-------|
35 :------------------|------------------|------------------|
46 :11-------11-------|11-------11-------|11-------11-------|
42 :------------------|------------------|------------------|
38 :------------------|-2----------------|------------------|
35 :-1---1--------1---|-----1----1---1---|-1----------------|

                                                            
49 :-0--------0-------|-0--------0-------|-0--------0-------|
35 :------------------|------------------|------------------|
46 :11-------11-------|11-------11-------|11-------11-------|
42 :------------------|------------------|------------------|
38 :-2--------2-------|------------------|-2----------------|
35 :-1---1----1---1---|-1---1--------1---|-----1----1---1---|

                                                            
49 :-0--------0-------|-0--------0-------|-0--------0-------|
35 :------------------|------------------|------------------|
46 :11-------11-------|11-------11-------|11-------11-------|
42 :------------------|------------------|------------------|
38 :------------------|-2--------2-------|------------------|
35 :-1----------------|-1---1--------1---|-1---1--------1---|

                                                              
49 :-0--------0-------|-0--------0-------|-0--------0---------|
35 :------------------|------------------|----------8-6---8---|
46 :11-------11-------|11-------11-------|11-------11---------|
42 :------------------|------------------|--------------------|
38 :-2----------------|------------------|-2--------3-3---2---|
35 :-----1----1---1---|-1----------------|-1---1----1-----1---|



                                                                        
49 :-0---------------|----------------|----------------|----------------|
35 :-----------------|----------------|----------------|----------------|
46 :11---------------|----------------|----------------|----------------|
42 :-----------------|----------------|----------------|----------------|
38 :-----------------|----------------|----------------|----------------|
35 :-----------------|----------------|----------------|----------------|



END OF DRUMS 









=================================
=================================
=================================
=================================


3.1416 INSTRUMENT TRACK: MISC STUFF



=================================
=================================
=================================
=================================









At (03:36) Add another guitar and play this:





Eb :------------------------|------------------------|
Bb :------------------------|------------------------|
Gb :-*----------------------|------------------------|
Db :10-10-10-10-10-10-10-10-|10-10-10-10-10-10-10-10-|
Ab :10-10-10-10-10-10-10-10-|10-10-10-10-10-10-10-10-|
Db :10-10-10-10-10-10-10-10-|10-10-10-10-10-10-10-10-|

Eb :------------------------|------------------------|
Bb :------------------------|------------------------|
Gb :------------------------|------------------------|
Db :12-12-12-12-12-12-12-12-|12-12-12-12-12-12-12-12-|
Ab :12-12-12-12-12-12-12-12-|12-12-12-12-12-12-12-12-|
Db :12-12-12-12-12-12-12-12-|12-12-12-12-12-12-12-12-|

Eb :------------------------|------------------------|
Bb :------------------------|------------------------|
Gb :------------------------|------------------------|
Db :13-13-13-13-13-13-13-13-|13-13-13-13-13-13-13-13-|
Ab :13-13-13-13-13-13-13-13-|13-13-13-13-13-13-13-13-|
Db :13-13-13-13-13-13-13-13-|13-13-13-13-13-13-13-13-|

Eb :------------------------|------------------------|
Bb :------------------------|------------------------|
Gb :------------------------|------------------------|
Db :13-13-13-13-13-13-13-13-|13-13-13-13-13-13-13-13-|
Ab :13-13-13-13-13-13-13-13-|13-13-13-13-13-13-13-13-|
Db :13-13-13-13-13-13-13-13-|13-13-13-13-13-13-13-13-|

Eb :------------------------|------------------------|
Bb :------------------------|------------------------|
Gb :-*----------------------|------------------------|
Db :10-10-10-10-10-10-10-10-|10-10-10-10-10-10-10-10-|
Ab :10-10-10-10-10-10-10-10-|10-10-10-10-10-10-10-10-|
Db :10-10-10-10-10-10-10-10-|10-10-10-10-10-10-10-10-|

Eb :------------------------|
Bb :------------------------|
Gb :------------------------|
Db :12-12-12-12-12-12-12-12-|
Ab :12-12-12-12-12-12-12-12-|
Db :12-12-12-12-12-12-12-12-|

Eb :------------------------|------------------------|
Bb :------------------------|------------------------|
Gb :------------------------|------------------------|
Db :12-12-12-12-12-12-12-12-|13-13-13-13-13-13-13-13-|
Ab :12-12-12-12-12-12-12-12-|13-13-13-13-13-13-13-13-|
Db :12-12-12-12-12-12-12-12-|13-13-13-13-13-13-13-13-|

Eb :------------------------|------------------------|
Bb :------------------------|------------------------|
Gb :------------------------|------------------------|
Db :13-13-13-13-13-13-13-13-|13-13-13-13-13-13-13-13-|
Ab :13-13-13-13-13-13-13-13-|13-13-13-13-13-13-13-13-|
Db :13-13-13-13-13-13-13-13-|13-13-13-13-13-13-13-13-|

Eb :------------------------|------------------------|
Bb :------------------------|------------------------|
Gb :------------------------|-*----------------------|
Db :13-13-13-13-13-13-13-13-|10-10-10-10-10-10-10-10-|
Ab :13-13-13-13-13-13-13-13-|10-10-10-10-10-10-10-10-|
Db :13-13-13-13-13-13-13-13-|10-10-10-10-10-10-10-10-|

Eb :------------------------|------------------------|
Bb :------------------------|------------------------|
Gb :------------------------|------------------------|
Db :10-10-10-10-10-10-10-10-|12-12-12-12-12-12-12-12-|
Ab :10-10-10-10-10-10-10-10-|12-12-12-12-12-12-12-12-|
Db :10-10-10-10-10-10-10-10-|12-12-12-12-12-12-12-12-|

Eb :------------------------|------------------------|
Bb :------------------------|------------------------|
Gb :------------------------|------------------------|
Db :12-12-12-12-12-12-12-12-|13-13-13-13-13-13-13-13-|
Ab :12-12-12-12-12-12-12-12-|13-13-13-13-13-13-13-13-|
Db :12-12-12-12-12-12-12-12-|13-13-13-13-13-13-13-13-|

Eb :------------------------|------------------------|
Bb :------------------------|------------------------|
Gb :------------------------|------------------------|
Db :13-13-13-13-13-13-13-13-|13-13-13-13-13-13-13-13-|
Ab :13-13-13-13-13-13-13-13-|13-13-13-13-13-13-13-13-|
Db :13-13-13-13-13-13-13-13-|13-13-13-13-13-13-13-13-|

Eb :------------------------|------------------------|
Bb :------------------------|------------------------|
Gb :------------------------|------------------------|
Db :13-13-13-13-13-13-13-13-|10-10-10-10-10-10-10-10-|
Ab :13-13-13-13-13-13-13-13-|10-10-10-10-10-10-10-10-|
Db :13-13-13-13-13-13-13-13-|10-10-10-10-10-10-10-10-|

Eb :------------------------|------------------------|
Bb :------------------------|------------------------|
Gb :------------------------|------------------------|
Db :10-10-10-10-10-10-10-10-|12-12-12-12-12-12-12-12-|
Ab :10-10-10-10-10-10-10-10-|12-12-12-12-12-12-12-12-|
Db :10-10-10-10-10-10-10-10-|12-12-12-12-12-12-12-12-|

Eb :------------------------|------------------------|
Bb :------------------------|------------------------|
Gb :------------------------|------------------------|
Db :12-12-12-12-12-12-12-12-|13-13-13-13-13-13-13-13-|
Ab :12-12-12-12-12-12-12-12-|13-13-13-13-13-13-13-13-|
Db :12-12-12-12-12-12-12-12-|13-13-13-13-13-13-13-13-|

Eb :------------------------|------------------------|
Bb :------------------------|------------------------|
Gb :------------------------|------------------------|
Db :13-13-13-13-13-13-13-13-|15-15-15-15-15-15-15-15-|
Ab :13-13-13-13-13-13-13-13-|13-13-13-13-13-13-13-13-|
Db :13-13-13-13-13-13-13-13-|13-13-13-13-13-13-13-13-|

Eb :------------------------|----------------|----------------|
Bb :------------------------|----------------|----------------|
Gb :------------------------|----------------|----------------|
Db :12-12-12-12-12-12-12-12-|----------------|----------------|
Ab :13-13-13-13-10-10-10-10-|----------------|----------------|
Db :13-13-13-13-10-10-10-10-|----------------|----------------|





Now, for some kickass atmospheric sounds, get these notes played
on your synth/string keys:



INTRO:

Here, you can follow the two guitars at the Intro.

Eb :----------------|----------------|----------------|----------------|
Bb :--1-------------|----------------|3---------------|----------------|
Gb :----------------|----------------|----------------|----------------|
Db :----------------|----------------|----------------|----------------|
Ab :----------------|----------------|----------------|----------------|
Db :----------------|----------------|----------------|----------------|

Eb :----------------|----------------|----------------|----------------|
Bb :4---------------|----------------|----------------|------4---------|
Gb :*---------------|----------------|3---------------|----------------|
Db :----------------|----------------|----------------|----------------|
Ab :----------------|----------------|----------------|----------------|
Db :----------------|----------------|----------------|----------------|






(00:10)


Play the next two bars at the intro x 6 and silence them at (00:49)

Eb :----------------|----------------|------3---------|
Bb :-----1----------|---*------------|------4---------|
Gb :-----3----------|-------*--------|----------------|
Db :----------------|----------------|----------------|  PLAY X 6
Ab :----------------|----------------|----------------|
Db :----------------|----------------|----------------|


Play the next chord each time a break/bridge occurs.

Low volume.

Eb :10---------------|
Bb :13---------------|
Gb :-----------------|
Db :-----------------|
Ab :17---------------|
Db :20---------------|






AND FINALLY THIS TAB IS OVER.

A Big Thank you goes to Red Sparowes, thank you for making incredible 
music, you've been a great influence.

Greetings to the metal Realm Red Sparowes board: 

http://www.metal-realm.net/forumdisplay.php?f=51


Listen to this song in midi! :

http://galileo.ens.uabc.mx/~al310503/Alone.mid


Copyright 2005, ANightToDismember. 

THIS WHOLE TAB IS FOR PRIVATE STUDY AND EDUCATIONAL PURPOSES ONLY.

the End, thanks.
Tap to rate this tab
 
# A B C D E F G H I J K L M N O P Q R S T U V W X Y Z