Song name
# A B C D E F G H I J K L M N O P Q R S T U V W X Y Z

Red Tape - El Salvador tab

-------------------------------------------------------------------------------
			     EL SALVADOR - Red Tape
-------------------------------------------------------------------------------
El Salvador
Red Tape
Radioactivist (2004)

Tabbed by: poad
Email: poad.hun@gmail.com

Tuning: dropped C (CGCFAd)


INTRO
D|------------------------------------------------------------------|
A|------------------------------------------------------------------|
F|------------------------------------------------------------------|
C|-0h33~-0h33~---15\\0----------------------------------------------| 
G|-0h33~-0h33~---15\\0----------------------------------------------|
C|-0h33~-0h33~---15\\0----------------------------------------------|


VERSE
D|----------------------------------------------------------------------|
A|----------------------------------------------------------------------|
F|----------------------------------------------------------------------|
C|--0s3-3333-0000--0h3-0h3-0h3-0h3--7-8-10p8-7-8-10p8--0h3-0h3-0h3-0h3--| 
G|--0s3-3333-0000--0h3-0h3-0h3-0h3---------------------0h3-0h3-0h3-0h3--|
C|--0s3-3333-0000--0h3-0h3-0h3-0h3---------------------0h3-0h3-0h3-0h3--|

D|----------------------------------------------------------------------|
A|----------------------------------------------------------------------|
F|----------------------------------------------------------------------|
C|--0s3-3333-0000--0h3-0h3-0h3-0h3--7-8-10p8-7-8-10p8--0h3-0h3-0h3-0h3--| 
G|--0s3-3333-0000--0h3-0h3-0h3-0h3---------------------0h3-0h3-0h3-0h3--|
C|--0s3-3333-0000--0h3-0h3-0h3-0h3---------------------0h3-0h3-0h3-0h3--|


PRE-CHORUS
D|------------------------------------------------------------------|
A|------------------------------------------------------------------|
F|------------------------------------------------------------------|
C|------------------------------------------------------------------| 
G|------------------------------------------------------------------|repeat 2x
C|-0h5h7p5-0h3h5p3-0h3p0-0h3h5p3--0h5h7p5-0h3h5p3-0h3p0-0h3h5p3-----|

D|---------------------------------------------------------------------------|
A|---------------------------------------------------------------------------|
F|---------------------------------------------------------------------------|
C|-x-00x-x---x-00x-x---0h1x0x------------------------0-0-xxx-xx-0-xxx-xx-0-0-| 
G|-x-00x-x---x-00x-x---0h1x0x------------------------0-0-xxx-xx-0-xxx-xx-0-0-|
C|-x-00x-x---x-00x-x---0h1x0x--5s7s5-3s5s3-5s7s5(p0)-0-0-xxx-xx-0-xxx-xx-0-0-|


D|-----------------------------------------------------------------|
A|-----------------------------------------------------------------|
F|-----------------------------------------------------------------|
C|--xxx-xx-0-xxx-xx-0-0-----------------------0x--0x--0x--0x-------| 
G|--xxx-xx-0-xxx-xx-0-0-----------------------0x--0x--0x--0x-------|
C|--xxx-xx-0-xxx-xx-0-0-5s7s5-3s5s3-5s7s5(p0)-0x--0x--0x--0x-------|


VERSE

PRE-CHORUS

CHORUS

INTERLUDE
D|--------------------------------------------------------|
A|--------------------------------------------------------|
F|--------------------------------------------------------|
C|--------------------------------------------------------|repeat 4x
G|--------------------------------------------------------|
C|--0-0-0-0-0-0-5s7s5-3s5s3-5s7s5(p0)---------------------|
   **********************PM**********   

D|------------------------------------------------------------------|
A|------------------------------------------------------------------|
F|------------------------------------------------------------------|
C|------------------------------------------------------------------|repeat 4x
G|------------------------------------------------------------------|
C|--0-0-0-0-0-0-5s7s5-3s5s3-5s7s5(p0)-------------------------------|


D|------------------------------------------------------------------|
A|------------------------------------------------------------------|
F|------------------------------------------------------------------|
C|--------------5s7s5-3s5s3-5s7s5(p0)-------------------------------|repeat 2x
G|--0-0-0-0-0-0-----------------------------------------------------|
C|--0-0-0-0-0-0-----------------------------------------------------|

D|------------------------------------------------------------------|
A|------------------------------------------------------------------|
F|------------------------------------------------------------------|
C|-------------------------------------0x-0x-0x-0x------------------|
G|-------------------------------------0x-0x-0x-0x------------------|
C|--0-0-0-0-0-0-5s7s5-3s5s3-5s7s5(p0)--0x-0x-0x-0x------------------|





Tablature Legend
----------------
 h   - hammer-on
 p   - pull-off
 b   - bend
 pb  - pre-bend
 r   - bend release (if no number after the r, then release immediately)
 /\  - slide into or out of (from/to "nowhere")
 s   - legato slide
 S   - shift slide
  - natural harmonic
[n]  - artificial harmonic
n(n) - tapped harmonic
 ~   - let ring //(vibrato)
 tr  - trill
 T   - tap
 TP  - trem. picking
 PM  - palm muting
\n/  - tremolo bar dip; n = amount to dip
 \n  - tremolo bar down
 n/  - tremolo bar up
/n\  - tremolo bar inverted dip
 =   - hold bend; also acts as connecting device for hammers/pulls
 <>  - volume swell (louder/softer)
 x   - on rhythm slash represents muted slash
 o   - on rhythm slash represents single note slash

If you have any corrections please e-mail me.
===============================================================================
Tap to rate this tab
 
# A B C D E F G H I J K L M N O P Q R S T U V W X Y Z