Song name
# A B C D E F G H I J K L M N O P Q R S T U V W X Y Z

Red Tape - Strike Tonight tab

Help us improve GuitareTab! Take a short survey!
-------------------------------------------------------------------------------
			     STRIKE TONIGHT - Red Tape
-------------------------------------------------------------------------------

Strike Tonight
Red Tape
Radioactivist (2004)
Tabbed by: poad
e-mail: poad.hun@gmail.com

tuning: dropped C (CGCFAd)

  INTRO
D|---10-10-10-10-10-10-10-10----------------------------------------|
A|---8--8--8--8--11-11-11--8-8-8-8-8--------------------------------|
F|---------------------------7-7-7-7--------------------------------|
C|------------------------------------------------------------------| repeat 8x
G|------------------------------------------------------------------|
C|------------------------------------------------------------------|

VERSE
D|------------------------------------------------------------------|
A|------------999-x-999999-x-999-x-999999---------------------------|
F|------------xxx-x-xxxxxx-x-xxx-x-xxxxxx---------------------------|
C|-1h5-5p1h5--666-x-666666-x-666-x-666666--1p4s5-1p4s5-1p4s5-5-5~x--|
G|-1h5-5p1h5-------------------------------1p4s5-1p4s5-1p4s5-5-5~x--|
C|-1h5-5p1h5-------------------------------1p4s5-1p4s5-1p4s5-5-5~x--|

D|--------------------------------------------------------------------|
A|--999-x-999999-x-----999-x-999999-x-999-x-999999--------------------|
F|--xxx-x-xxxxxx-x-----xxx-x-xxxxxx-x-xxx-x-xxxxxx--------------------|
C|--666-x-666666-x-5~x-666-x-666666-x-666-x-666666-1p4s5-1p4s5-1p4s5--|
G|-----------------5~x-----------------------------1p4s5-1p4s5-1p4s5--|
C|-----------------5~x-----------------------------1p4s5-1p4s5-1p4s5--|


CHORUS
D|-------------------------------------------------------------------------|
A|-------------------------------------------------------------------------|
F|-------------------------------------------------------------------------|
C|-5-5-888-666-555-1-1-888-666-555-6-6-888-666-555-5-5-5-5-5s6s5-5s6s5-----|
G|-5-5-------------1-1-------------6-6-------------3-3-3-3-x-x-x-x-x-x-----|
C|-5-5-------------1-1-------------6-6-------------5-5-5-5-5s6s5-5s6s5-----|

D|-------------------------------------------------------------------------|
A|-------------------------------------------------------------------------|
F|-------------------------------------------------------------------------|
C|-5-5-888-666-555-1-1-888-666-555-6-6-888-666-555-5-5-5-5-6-6-6-6---------|
G|-5-5-------------1-1-------------6-6-------------3-3-3-3-6-6-6-6---------|
C|-5-5-------------1-1-------------6-6-------------5-5-5-5-6-6-6-6---------|

VERSE

CHORUS

INTRO

INTERLUDE
D|---------------------9---9--9-10---9---9--9-10-12-12--9s10s9---9s10s9---9s10s9--11-|
A|--------------------13--13-13-14--13--13-13-14-16-16-13s14s13-13s14s13-13s14s13-8--|
F|-----------------------------------------------------------------------------------|
C|-1--1-1-1--1--1-1-1----------------------------------------------------------------| 
G|-1--1-1-1--1--1-1-1----------------------------------------------------------------|
C|-1--1-1-1--1--1-1-1----------------------------------------------------------------|
      -PM--     -PM--     


D|------------------------------------------------------------------|
A|------------------------------------------------------------------|
F|------------------------------------------------------------------|
C|--6--6-6-6-6-6-6-6--3-3-3s6-6-6-6-6-6-6-9-9-9s6-6-6---1xxx-1xxx---| 
G|------------------------------------------------------1xxx-1xxx---|
C|------------------------------------------------------1xxx-1xxx---|

D|------------------------------------------------------------------|
A|------------------------------------------------------------------|
F|------------------------------------------------------------------|
C|------------------------------------------------------1xxx-1xxx---| 
G|--6--6-6-6-6-6-6-6--3-3-3s6-6-6-6-6-6-6-9-9-9s6-6-6---1xxx-1xxx---|
C|------------------------------------------------------1xxx-1xxx---|


CHORUS

INTRO

OUTRO
D|------------------------------------------------------------------|
A|------------------------------------------------------------------|
F|------------------------------------------------------------------|
C|--5-5-5-5-5-5-7-7-7-7-7-7-1-1-1-1-1-1-10-10-10-10-10-10--5~-------| 
G|--5-5-5-5-5-5-7-7-7-7-7-7-1-1-1-1-1-1-10-10-10-10-10-10--5~-------|
C|--5-5-5-5-5-5-7-7-7-7-7-7-1-1-1-1-1-1-10-10-10-10-10-10--5~-------|
                                                           let ring



Tablature Legend
----------------
| / or s  slide up
| \       slide down
| h       hammer-on
| p       pull-off
| ~       let ring
| +       harmonic
| x       Mute note

If you have any corrections please e-mail me.
===============================================================================
Related for Strike Tonight tab