Song name
# A B C D E F G H I J K L M N O P Q R S T U V W X Y Z

Red Tape - Droppin Bombs On Your Moms tab

-------------------------------------------------------------------------------
			     DROPPIN' BOMBS ON YOUR MOMS - Red Tape
-------------------------------------------------------------------------------
Droppin' Bombs On Your Moms
Red Tape
Radioactivist (2004)

Tabbed by: poad
Email: poad.hun@gmail.com


tuning: dropped C

INTRO/VERSE
D|-----------------------------------------------|-------------------------|
A|-----------------------------------------------|-------------------------|
F|-----------------------------------------------|-------------------------|
C|-----------------------------------------------|-----------10-10-10-10---| repeat 4x
G|-----------------------------------10-10-10-10-|-------------------------|
C|--6\5/6\5/6/10-10-10-10--6\5/6\5/6/10-10-10-10-|-6\5/6\5/6---------------|

CHORUS 1
D|----------------------------------------------------------------|
A|----------------------------------------------------------------|
F|----------------------------------------------------------------|
C|-10-10-10-10-10-10-11-11-11-11-11-11-6-6-6-6-6-6-1-1-1-1-1-1----| 
G|-10-10-10-10-10-10-11-11-11-11-11-11-6-6-6-6-6-6-1-1-1-1-1-1----|
C|-10-10-10-10-10-10-11-11-11-11-11-11-6-6-6-6-6-6-1-1-1-1-1-1----|

D|----------------------------------------------------------------|
A|----------------------------------------------------------------|
F|----------------------------------------------------------------|
C|-10-10-10-10-10-10-11-11-11-11-11-11-6-6-6-6-6-6-1-1-1-1-1-1----| 
G|-10-10-10-10-10-10-11-11-11-11-11-11-6-6-6-6-6-6-1-1-1-1-1-1----|
C|-10-10-10-10-10-10-11-11-11-11-11-11-6-6-6-6-6-6-1-1-1-1-1-1----|

D|--------------------------------------------------------|
A|--------------------------------------------------------|
F|--------------------------------------------------------|
C|-10-10-10-10-11-11-11-11-6-6-6--------------------------| 
G|-10-10-10-10-11-11-11-11-6-6-6--------------------------|
C|-10-10-10-10-11-11-11-11-6-6-6--------------------------|


VERSE


CHORUS 2
D|-------------------------------------------------------------------------|
A|-------------------------------------------------------------------------|
F|-------------------------------------------------------------------------|
C|-------------------------------------------------------------------------| 
G|-10-10-10-10-11-11-11-11-13-13-13-13-10-10-10-10-11-11-11-11-10-10-10-10-|
C|-------------------------------------------------------------------------|

CHORUS1


INTERLUDE
D|------------------------------------------------------------------|
A|------------------8-8-8-8/9\8------------------8-8-8-8/12---------|
F|------------------x-x-x-x-x-x------------------x-x-x-x--x---------|
C|--0x-6-6--0x-3-3--6-6-6-6/7\6--0x-6-6--0x-3-3--6-6-6-6/10---------|repeat 2x
G|--0x-6-6--0x-3-3---------------0x-6-6--0x-3-3---------------------|
C|--0x-6-6--0x-3-3---------------0x-6-6--0x-3-3---------------------|

D|----------------------------------------------------------------|
A|----------------------------------------------------------------|
F|----------------------------------------------------------------|
C|-10-10-10-10-10-10-11-11-11-11-11-11-6-6-6-6-6-6-1-1-1-1-1-1----|repeat 2x
G|-10-10-10-10-10-10-11-11-11-11-11-11-6-6-6-6-6-6-1-1-1-1-1-1----|
C|-10-10-10-10-10-10-11-11-11-11-11-11-6-6-6-6-6-6-1-1-1-1-1-1----|
      ----pm--------    ----pm--------   ---pm----   ---pm----





OUTRO (CHORUS) 
D|----------------------------------------------------------------|
A|----------------------------------------------------------------|
F|----------------------------------------------------------------|
C|-10-10-10-10-10-10-11-11-11-11-11-11-6-6-6-6-6-6-1-1-1-1-1-1----|
G|-10-10-10-10-10-10-11-11-11-11-11-11-6-6-6-6-6-6-1-1-1-1-1-1----|
C|-10-10-10-10-10-10-11-11-11-11-11-11-6-6-6-6-6-6-1-1-1-1-1-1----|
 |
D|-------------------------------------------------------------------------|
A|-12-12-12-12-13-13-13-13-15-15-15-15-12-12-12-12-13-13-13-13-12-12-12-12-|
F|--x--x--x--x--x--x--x--x--x--x--x--x--x--x--x--x--x--x--x--x--x--x--x--x-|
C|-10-10-10-10-11-11-11-11-13-13-13-13-10-10-10-10-11-11-11-11-10-10-10-10-| 
G|-------------------------------------------------------------------------|
C|---------------------------------------------------------------| 



Tablature Legend
----------------
 h   - hammer-on
 p   - pull-off
 b   - bend
 pb  - pre-bend
 r   - bend release (if no number after the r, then release immediately)
 /\  - slide into or out of (from/to "nowhere")
 s   - legato slide
 S   - shift slide
  - natural harmonic
[n]  - artificial harmonic
n(n) - tapped harmonic
 ~   - let ring //(vibrato)
 tr  - trill
 T   - tap
 TP  - trem. picking
 PM  - palm muting
\n/  - tremolo bar dip; n = amount to dip
 \n  - tremolo bar down
 n/  - tremolo bar up
/n\  - tremolo bar inverted dip
 =   - hold bend; also acts as connecting device for hammers/pulls
 <>  - volume swell (louder/softer)
 x   - on rhythm slash represents muted slash
 o   - on rhythm slash represents single note slash

If you have any corrections please e-mail me.
===============================================================================
Tap to rate this tab
# A B C D E F G H I J K L M N O P Q R S T U V W X Y Z