Song name
# A B C D E F G H I J K L M N O P Q R S T U V W X Y Z

Red Tape - Divebomb tab

-------------------------------------------------------------------------------
			     DIVEBOMB - Red Tape
-------------------------------------------------------------------------------
Divebomb
Red Tape
Radioactivist (2004)
Tabbed by: ádi
Email: poad.hun@gmail.com

Tuning: CGCFAd

INTRO / VERSE
D|------0-0-0-0-0-----0-0-0-0-0-------------------------------------|
A|------------------------------------------------------------------|
F|--<4>-----------<4>-----------------------------------------------|
C|------------------------------------------------------------------| repeat 2x
G|------------------------------0h1p0-------------------------------|
C|------------------------------------------------------------------|

CHORUS
D|------------------------------------------------------------------|
A|------------------------------------------------------------------|
F|------------------------------------------------------------------|
C|--10\7-7-7-7--10\5-5-5-5--10\7-7-9-9-10---------------------------|repeat 4x
G|--10\7-7-7-7--10\5-5-5-5--10\7-7-9-9-10---------------------------|
C|--10\7-7-7-7--10\5-5-5-5--10\7-7-9-9-10---------------------------|


VERSE

CHORUS


INTERLUDE
D|------------------------------------------------------------------|
A|------------------------------------------------------------------|
F|--9-9-9-9\4\2-2-2-2/4/9-9-9-9-------------------------------------|
C|--9-9-9-9\4\2-2-2-2/4/9-9-9-9-------------------------------------| 
G|--7-7-7-7\2\0-0-0-0/2/7-7-7-7-------------------------------------|repeat 4x
C|------------------------------------------------------------------|


D|----------------------------------------------------------------------|
A|----------------------------------------------------------------------|
F|----------------------------------------------------------------------|
C|--------8-8-8-8\6-6-6-6-11\8-8-8-8-7-7-6-6-6-6-11\12-12-12-12-8-8-8-8-|repeat 2x 
G|--------6-6-6-6\4-4-4-4--9\6-6-6-6-5-5-4-4-4-4--9\8--8--8--8--6-6-6-6-|
C|-7h8p7----------------------------------------------------------------|


D|-------------------------------------------------------------------|
A|-------------------------------------------------------------------|
F|-------------------------------------------------------------------|
C|-------------------8-8-8-8-6-8-6-6-6-6-----------------------------| 
G|-6-6-6-6-4-4-4-4-9---------------------9-8-8-8-8-6-8-6-6-6-6-------|
C|-------------------------------------------------------------7h8p7-|


D|-----------------------------------------------------------------------|
A|-----------------------------------------------------------------------|
F|-----------------------------------------------------------------------|
C|-------------------8-8-8-8-6-8-11-11-11-11-----------------------------| 
G|-6-6-6-6-4-4-4-4-9-------------------------9-8-9-8-8-8-8-9-8-9-8-------|
C|-----------------------------------------------------------------7h8p7-|


CHORUS


OUTRO
D|------------------------------------------------------------------|
A|------------------------------------------------------------------|
F|------------------------------------------------------------------|
C|------------------------------------------------------------------| 
G|------------------------------------------------------------------|
C|--8/10\6-6-6-6/8\4-4-4-6-4-6-4-x----------------------------------|
           -PM-     -PM-


Tablature Legend
----------------
 h   - hammer-on
 p   - pull-off
 b   - bend
 pb  - pre-bend
 r   - bend release (if no number after the r, then release immediately)
 /\  - slide into or out of (from/to "nowhere")
 s   - legato slide
 S   - shift slide
  - natural harmonic
[n]  - artificial harmonic
n(n) - tapped harmonic
 ~   - let ring //(vibrato)
 tr  - trill
 T   - tap
 TP  - trem. picking
 PM  - palm muting
\n/  - tremolo bar dip; n = amount to dip
 \n  - tremolo bar down
 n/  - tremolo bar up
/n\  - tremolo bar inverted dip
 =   - hold bend; also acts as connecting device for hammers/pulls
 <>  - volume swell (louder/softer)
 x   - on rhythm slash represents muted slash
 o   - on rhythm slash represents single note slash

If you have any corrections please e-mail me.
===============================================================================
Tap to rate this tab
 
# A B C D E F G H I J K L M N O P Q R S T U V W X Y Z