Song name
# A B C D E F G H I J K L M N O P Q R S T U V W X Y Z

Red Warszawa - Fjsing tab

Hej jeg er den samme som har tabbet Masturbation og jeg keder man røv meget nu,
men vil lige tabbe den her ind.

Intro.
e|---------------------------|
B|---------------------------|
G|---------------------------|
D|---------------------------|
A|---------------------------|
E|--la-la--la-lalaaa--la-la--|

Vers.
e|---------------------------|
B|---------------------------|
G|---------------------------|
D|--9-9/5-55/12--12-12-------|
A|--7-7/3-33/12--12-12-------|
E|---------------------------|

e|---------------------------|
B|---------------------------|
G|---------------------------|
D|--9-9/5-55-----------------|
A|--7-7/3-33-5--5-5----------|
E|-----------3--3-3----------|

Omkvæd.
e|---------------------------|
B|---------------------------|
G|---------------------------|
D|---------------------------|
A|-2222-5555-33333333--------|
E|-0000-3333-11111111--------| Jeg er ikke helt sikker på omkvædet.

Det var det. Øl og kvinder er det bedste!
Tap to rate this tab
# A B C D E F G H I J K L M N O P Q R S T U V W X Y Z