Song name
# A B C D E F G H I J K L M N O P Q R S T U V W X Y Z

Red Warszawa - Aeggemad tab

-----------------------------------------------------------------------------
                             Tab by Hallelujah_DK

                            Red Warszava - Aeggemad
-----------------------------------------------------------------------------

Dropped D tuning



Intro                play 3x
e|--------------------------|-------------------|
B|--------------------------|-------------------|
G|----4------0---0-2/4\2-0--|-----0-0-2/4\2-0---|
D|-2----20-0---0----------20|2-----2----------20|
A|--------------------------|-------------------|
E|--------------------------|-------------------|

                     play 4x
e|--------------------------|
B|--------------------------|
G|----4------0---0-2/4\2-0--|
D|-2----20-0---0----------20|
A|--------------------------|
E|--------------------------|

 adds overdrive to the guitar

                     play 3x
e|--------------------------|-------------------|
B|--------------------------|-------------------|
G|----4------0---0-2/4\2-0--|-----0-0-2/4\2-0---|
D|-2----20-0---0----------20|2-----2----------20|
A|--------------------------|-------------------|
E|--------------------------|-------------------|


Verse
                             play 8x
 e|----------------------------------|
 B|----------------------------------|
 G|----------------------------------|
 D|--2-2-2-2-0-0-0-0-5-5-5-5-7-7-7-7-|
 A|--2-2-2-2-0-0-0-0-5-5-5-5-7-7-7-7-|
 E|--2-2-2-2-0-0-0-0-5-5-5-5-7-7-7-7-|
Der ligger en blomme..


Chorus
                                                            play 2x
e|------------------------------------------------------------------|
B|------------------------------------------------------------------|
G|------------------------------------------------------------------|
D|--3-3-3-3-3-3-3-3-3-3-3-3-3-3-3-3-2-2-2-2-2-2-2-2-5-5-5-5-5-5-5-5-|
A|--3-3-3-3-3-3-3-3-3-3-3-3-3-3-3-3-2-2-2-2-2-2-2-2-5-5-5-5-5-5-5-5-|
E|--3-3-3-3-3-3-3-3-3-3-3-3-3-3-3-3-2-2-2-2-2-2-2-2-5-5-5-5-5-5-5-5-|


And back to intro/bridge riff

e|--------------------------|-------------------|
B|--------------------------|-------------------|
G|----4------0---0-2/4\2-0--|-----0-0-2/4\2-0---|
D|-2----20-0---0----------20|2-----2----------20|
A|--------------------------|-------------------|
E|--------------------------|-------------------|

You should be able to figure out the rest your self ;)


If you think there is a need for corrections please send to: jonas_ostergaard@hotmail.com
Tap to rate this tab
 
# A B C D E F G H I J K L M N O P Q R S T U V W X Y Z