Song name
# A B C D E F G H I J K L M N O P Q R S T U V W X Y Z

Red Warszawa - Brndby Strand tab

E|-----------------------------------------------|
B|-----------------------------------------------|
G|--14/16--16----------16--16--16----19--21--14--|
D|-----------------------------------------------|
A|-----------------------------------------------|
E|-----------------------------------------------|



E|-------------------------------------------------------------------------------------------------|
B|-------------------------------------------------------------------------------------------------|
G|--14--14--16--17--17--16--16--12--9--9--11--12--12--9--9--9--14/16--14----19--14--14--14/16--16--|
D|-------------------------------------------------------------------------------------------------|
A|-------------------------------------------------------------------------------------------------|
E|-------------------------------------------------------------------------------------------------|



E|---------------------------------------------------------------------------------|
B|---------------------------------------------------------------------------------|
G|--16--16--16--14--12--11b12b11b12b11--11-----------------------------------------|
D|------------------------------------------12--7--7--7--9--10--10--9--9--5--------|
A|---------------------------------------------------------------------------7-----|
E|---------------------------------------------------------------------------------|



E|--------------------------------------------|
B|----------------------------------------10--|
G|-----------4--9--------9--9--9--11--12------|
D|--------5-----------------------------------|
A|--7--7--------------------------------------|
E|--------------------------------------------|
                                                        http://www.guitartabcreator.com
Tap to rate this tab
# A B C D E F G H I J K L M N O P Q R S T U V W X Y Z