Song name
# A B C D E F G H I J K L M N O P Q R S T U V W X Y Z

Red Warszawa - Connie Dans For Mig tab

Band:  Red Warszawa
Album:  Omvendte Blå Kors
Song:  Connie Dans For Mig

Copyright (c)  Gusten Fætter Records 2002
Version 1.0 - 21/1 2006

Transcribed By: Per Nielsen (Kværndrup):D
Email:          madeintaiwan2@hotmail.com


.  - palm mute           /  - slide up to
\  - slide down to       ~  - vibrato
h  - hammer on           b  - Bend
p  - pull off            Suffixes for bend
t  - tap                 f  - full bend    h - half bend
ph - pinched harmonic    q  - quarter bend t - tap bend
*  - see comment         ^  - Hold bend    r release bend
x  - Stuccatto           ~  - vibrato bend
,  - slight palm mute    () - ghost note, sustained note
"  - tremolo note        <> - Trill

Tuning E A D G B E
The song starts with drum and then a bass doing this:

Bass Intro
|-------------------------|
|-------------------------|
|------0-0-0-------4-4-4--|
|-2-2-2------0-0-0--------|

Then the guitar kicks in with this riff:
|-------------------------------------------------------------------|
|-------------------------------------------------------------------|
|-------------------------------------------------------------------|   x4
|-------------------------------------------------------------------|
|---4-0-------------------------------------------------------------|
|-2-----4-5-4-0-4-5-4-0---------------------------------------------|
                                  
Verse:							   
|----------------------------------------------------------------|
|----------------------------------------------------------------|
|----------------------------------------------------------------| x7
|-6-6----------7-7-2-2-------------------------------------------|
|-6-6----------7-7-2-2-------------------------------------------|
|-4-4--0-0-0--5-5-0-0--------------------------------------------|

The 8 time play this: 
|--------------------|
|--------------------|
|--------------------|
|-6-6-------7-7-9-9--|
|-6-6-------7-7-9-9--|
|-4-4-0-0-0-5-5-7-7--|


Chorus
|-------------------------------------------------------------------|
|-------------------------------------------------------------------|
|-------------------------------------------------------------------|  x4
|-------------------------------------------------------------------|
|---4-0-------------------------------------------------------------|
|-2-----4-5-4-0-4-5-4-0---------------------------------------------|

Chorus2
|-------------------------------------------------------------------|
|-------------------------------------------------------------------|
|--------------------------6-6-6-6----------------------------------|
|-4-4-4--7-7-7-7--2-2-2-2--6-6-6-6----------------------------------|
|-4-4-4--7-7-7-7--2-2-2-2--4-4-4-4----------------------------------|
|-2-2-2--5-5-5-5--0-0-0-0-------------------------------------------|
Form:
     Intro
           Verse  
           Chorus
           Verse 
           Chorus
           Verse
           Chorus
           *Chorus again (but only with bass and drums) x20 Bass
           then Chorus 2 till you drop dead 

Just added a few more thing!And remembered to login this time!And again: Have fun!
Tap to rate this tab
# A B C D E F G H I J K L M N O P Q R S T U V W X Y Z