Song name
# A B C D E F G H I J K L M N O P Q R S T U V W X Y Z

Red Warszawa - Soren Autonom tab

Intro (bass) 

Intro Whit guitar
e|------------------------------------------------------|
B|------------------------------------------------------|
G|------------------------------------------------------| x7
D|------------------------------------------------------|
A|------------------------------------------------------|
E|-0-7-6-0-6-5-0-5-3--5-3-2-0---------------------------|

Verse 
e|------------------------------------------------------|
B|------------------------------------------------------|
G|------------------------------------------------------| x2
D|--------------------------2~~-------------------------|
A|--------------------------2~~-------------------------|
E|-0-7-6-0-6-5-0-5-3--5-3-2-0~~-------------------------|


e|----------------------------------------------------------|
B|----------------------------------------------------------|
G|--------------------------2~~-----------------------------|
D|--------------------------2~~-----------------------------|
A|--------------------------0~~--0-7-8-0-8-10-0-10-12-12-10-|
E|-0-7-6-0-6-5-0-5-3--5-3-2---------------------------------|

End of Verse   
e|------------------------------------------------------|
B|------------------------------------------------------|
G|------------------------------------------------------|
D|-2~~--------------------------------------------------|
A|-2~~--------------------------------------------------|
E|-0~~-0-7-6-0-6-5-0-5-3--5-3-2-------------------------|

Chorus
e|--------------------------------------------------------------------|
B|--------------------------------------------------------------------|
G|--------------------------------------------------------------------|
D|---------------------------------4-----4-----4-----4---4---4-2------| x2
A|-7-7-7-7-7-7-7-7-6-6-6-6-6-6-6-6-4-----4-----4-----4---4---4-2------|
E|-5-5-5-5-5-5-5-5-4-4-4-4-4-4-4-4-2-0-0-2-0-0-2-0-0-2-0-2-0-2-0------|

Then the Chorus ends whit this
e|-------------------------------------------------------------------------|
B|-------------------------------------------------------------------------|
G|-------------------------------------------------------------------------|
D|-------------------------------------------------------------------------|
A|-7-7-7-7-7-7-7-7-6-6-6-6-6-6-6-6-9-9-9-9-9-9-9-9-12-12-12-12-12-12-12-12-|
E|-5-5-5-5-5-5-5-5-4-4-4-4-4-4-4-4-7-7-7-7-7-7-7-7-10-10-10-10-10-10-10-10-|

Outtro
e|------------------------------||--------------------------------|
B|------------------------------||--------------------------------|
G|------------------------------||-and the 5 time. end whit this--|
D|------------------------------||--------------------------2~~---|
A|----Play 4 times--------------||--------------------------2~~---|
E|-0-7-6-0-6-5-0-5-3--5-3-2-0---||-0-7-6-0-6-5-0-5-3--5-3-2-0~~---|

Intro
Verse
Chorus

Verse
Chorus
Solo/don't have :/

Verse
Chorus
Verse
Chorus
Outtro




Tap to rate this tab
# A B C D E F G H I J K L M N O P Q R S T U V W X Y Z