Song name
# A B C D E F G H I J K L M N O P Q R S T U V W X Y Z

Red Warszawa - Motorvej tab

Listen to the song to get the Form, ist very Simpel.

Part 1.

Intro whit Heavy drums.

Only first time| Verse
e|-------------|-------------------------------------------------|
B|-------------|-------------------------------------------------|
G|-------------|-------------------------------------------------|
D|-------------|-------------------------------------------------|
A|12\\\\\\\\\\\|-------------------------7-7---------------------|
E|12\\\\\\\\\\\|-0-0-3h5-0-0-3h5-0-0-3h5-5-5---------------------|

Chorus           last time before part 2 it end whit this
e|-------------||------------------------------------------|
B|-------------||------------------------------------------|
G|-------------||------------------------------------------|
D|-------------||---------2~~~~----------------------------|
A|-7777-5/9-99-||-7777-55-2~~~~----------------------------|
E|-5555-3/7-77-||-5555-33-0~~~~----------------------------|

 
|--------------------------------------------------------------------------|

Part 2.

 Verse
e|-------------------------------------------------------|
B|-------------------------------------------------------|
G|-------------------------------------------------------|
D|-------------------------------------5-5-5-5-5-5-------|
A|-4-4-4-4-4/5-4-4-4-4-4/5-4-4-4-4-4/5-5-5-5-5-5-5-------|
E|-2-0-2-0-2/3-2-0-2-0-2/3-2-0-2-0-2/3-3-3-3-3-3-3-------|

second verse                          before part 1 again it end whit this
e|------------------------------------|-----------------------------------|
B|------------------------------------|-----------------------------------|
G|------------------------------------|-----------------------------------|
D|------------------------------------|------------------2~~~~------------|
A|-4-4-4-4-4-4-4-4-4-4-4-4-4-4-4-4-8-7|--------------8-7-2~~~~------------|
E|-2-0-2-0-2-0-2-0-2-0-2-0-2-0-2-0-6-5|--------------6-5-0~~~~------------|
  ....................................

the song end whit this.
Just play it very many times, and listen to the song when it stops.

e|-------------------------------------------------------|
B|-------------------------------------------------------|
G|-------------------------------------------------------|
D|-------------------------------------------------------|
A|-------------------------7-7---------------------------|
E|-0-0-3h5-0-0-3h5-0-0-3h5-5-5---------------------------|



\ = Slide Down
/ = Slide up
~ = Let ring
h = Hammeron










Tap to rate this tab
 
# A B C D E F G H I J K L M N O P Q R S T U V W X Y Z