Song name
# A B C D E F G H I J K L M N O P Q R S T U V W X Y Z

Red Warszawa - Barbiedukkeland tab

Band:  Red Warszawa
Album:  Omvendte Blå Kors
Song:  Barbiedukkeland

Copyright (c)  Gusten Fætter Records 2002
Version 1.0 - 21/1 2006

Transcribed By: Per Nielsen (Kværndrup)
Email:          madeintaiwan2@hotmail.com


.  - palm mute           /  - slide up to
\  - slide down to       ~  - vibrato
h  - hammer on           b  - Bend
p  - pull off            Suffixes for bend
t  - tap                 f  - full bend    h - half bend
ph - pinched harmonic    q  - quarter bend t - tap bend
*  - see comment         ^  - Hold bend    r release bend
x  - Stuccatto           ~  - vibrato bend
,  - slight palm mute    () - ghost note, sustained note
"  - tremolo note        <> - Trill

Tuning E A D G B E
Verse (Palm mute)
|-------------------------------------------------------------------|
|-------------------------------------------------------------------|
|-----------------7-7-7-7-7-7-7-7-7-7-7-7-7-7-7-7-------------------|
|-5-5-5-5-5-5-5-5-7-7-7-7-7-7-7-7-7-7-7-7-7-7-7-7-5-5-5-5-5-5-5-5---|
|-5-5-5-5-5-5-5-5-5-5-5-5-5-5-5-5-5-5-5-5-5-5-5-5-5-5-5-5-5-5-5-5---|
|-3-3-3-3-3-3-3-3---------------------------------3-3-3-3-3-3-3-3---|

Pre Chorus
|-------------------------------------------------------------------|
|-------------------------------------------------------------------|
|----------------7-7-7-7-7-7-7-7------------------------------------|
|2-2-2-2-2-2-2-2-7-7-7-7-7-7-7-7-2-2-2-2-2-2-2-2-5-5-5-5-5-5-5-5----|
|2-2-2-2-2-2-2-2-5-5-5-5-5-5-5-5-2-2-2-2-2-2-2-2-5-5-5-5-5-5-5-5----|
|0-0-0-0-0-0-0-0-----------------0-0-0-0-0-0-0-0-3-3-3-3-3-3-3-3----|

|-------------------------------------------------------------------|
|-------------------------------------------------------------------|
|---------------------------------5-5-5-5-5-5-5-5-------------------|
|-7-7-7-7-7-7-7-7-2-2-2-2-2-2-2-2-5-5-5-5-5-5-5-5-2-2---------------|
|-7-7-7-7-7-7-7-7-2-2-2-2-2-2-2-2-3-3-3-3-3-3-3-3-2-2---------------|
|-5-5-5-5-5-5-5-5-0-0-0-0-0-0-0-0-----------------0-0---------------|

Chorus (The lalala Part)
|-------------------------------------------------------------------|
|-------------------------------------------------------------------|
|-----------------7-7-7-7-7-7-7-7-----------------------------------|
|-5-5-5-5-5-5-5-5-7-7-7-7-7-7-7-7-7-7-7-7-7-7-7-7-2-2-2-2-2-2-2-2---|
|-5-5-5-5-5-5-5-5-5-5-5-5-5-5-5-5-7-7-7-7-7-7-7-7-2-2-2-2-2-2-2-2---|
|-3-3-3-3-3-3-3-3-----------------5-5-5-5-5-5-5-5-0-0-0-0-0-0-0-0---|

|-------------------------------------------------------------------|
|--------------------------------------------------4-4-4-4-4-4-4-4--|
|-----------------7-7-7-7-7-7-7-7------------------4-4-4-4-4-4-4-4--|
|-5-5-5-5-5-5-5-5-7-7-7-7-7-7-7-7-7-7-7-7-7-7-7-7--2-2-2-2-2-2-2-2--|
|-5-5-5-5-5-5-5-5-5-5-5-5-5-5-5-5-7-7-7-7-7-7-7-7-------------------|
|-3-3-3-3-3-3-3-3-----------------5-5-5-5-5-5-5-5-------------------|

Solo (The one played on a keyboard)
|-------------------------------------------------------------------|
|-------5-------------------------------------5-5-5-----------------|
|-4-4-7--p7----5-5-5-7p-4-------------4-7-----------7-5-4-----------|
|----------7-7----------------5-5-5-7-----7-7-----------------------|
|-------------------------7-7---------------------------------------|
|-------------------------------------------------------------------|

END

Tap to rate this tab
 
# A B C D E F G H I J K L M N O P Q R S T U V W X Y Z