Song name
# A B C D E F G H I J K L M N O P Q R S T U V W X Y Z

Red Warszawa - 2000 Tyskere tab

----------------------------------------------------------------------------
			  2000 Tyskere - Red Warszawa
----------------------------------------------------------------------------
Tabbed by: Bee-Ay
Email: Leviathan_ben@hotmail.com

Tuning: Standard.

Hey! 
Jeg skriver dansk eftersom at Red Warszawa kun er kendt af det danske folk.
Og hvis du ikke er dansk: Bad luck..


Vers:
e|-------------------------------------------------------------|
B|-------------------------------------------------------------|
G|*-----------------------------------------------------------*|
D|*-----------------------------------------------------------*|
A|------9---10--9-------9---10--9-------9---10--9----5-5--7-7--|
E|--0-0-7-0-8-0-7-0-0-0-7-0-8-0-7-0-0-0-7-0-8-0-7-0--3-3--5-5--|

Den sidste gang lige inden Jens begynder at "synge" slutter det med:
e|--------------|
B|--------------|
G|--------------|
D|--------------|
A|---5-5--7-3---|
E|---3-3--5-1---|


Eeehm? Omkvæd må det være:
e|-----------------------------|
B|-----------------------------|
G|*---------------------------*|
D|*---------------------------*| x3
A|--5---5---5---5---7---7---7--|
E|--3-0-3-0-3-0-3-0-5-0-5-0-5--|

Lige inden det går tilbage til verset siger det:
e|---------------------------|
B|---------------------------|
G|---------------------------|
D|---------------------------|
A|-5---5---5---5----7-7--3-3-|
E|-3-0-3-0-3-0-3-0--5-5--1-1-|

Eehm? Solo ting:
Brug delay på overtonen.
e|-----------------------------------------------------------|
B|-----------------------------------------------------------|
G|----------------------------------------------------4------|
D|2-2-2222-1-44-44-4444-2-66--99999--77777--66-4444-2----<2>-|
A|-----------------------------------------------------------|
E|-----------------------------------------------------------|

Symbol:
<2>: overtone.

Det er det! 
Taget fra den danske original sang: 3 små kinesere.


Tap to rate this tab
# A B C D E F G H I J K L M N O P Q R S T U V W X Y Z