Song name
# A B C D E F G H I J K L M N O P Q R S T U V W X Y Z

Red Warszawa - March Of The Nol tab

----------------------------------------------------------------------------
		     March Of The N.O.L. - Red Warszawa
----------------------------------------------------------------------------
Tabbed by: Bee-Ay
Email: Leviathan_ben@hotmail.com

Tuning: Standard.

Dette er et stykke meget tung musik...

Riff A:
e|-------------------------------|-------------------------------------|
B|-------------------------------|-------------------------------------|
G|*------------------------------|-------------------------------------|
D|*--1/2--2-2---1/2--2-2---------|--1/2--2-2---1/2--2-2----------------|
A|---1/2--2-2---1/2--2-2--3/2-2--|--1/2--2-2---1/2--2-2--3/2-2---------|
E|--------0-0--------0-0--3/2-2--|-------0-0--------0-0--3/2-2---------|
pm:       . .        . .                 . .        . .

e|-------------------------------|------------------------------------|
B|-------------------------------|------------------------------------|
G|*------------------------------|-----------------------------------*|
D|*--1/2--2-2---1/2--2-2---------|--3---3-3-3-3-3-3-4-4-4-4-4-4-4-4--*|
A|---1/2--2-2---1/2--2-2--3/2-2--|--1---1-1-1-1-1-1-4-4-4-4-4-4-4-4---|
E|--------0-0--------0-0--3/2-2--|--1---1-1-1-1-1-1-2-2-2-2-2-2-2-2---|
pm:       . .        . .                . . . . . . . . . . . . . .


Riff B:
e|-----------------------------|--------------------------------------|
B|-----------------------------|--------------------------------------|
G|-----------------------------|--------------------------------------|
D|-----------------------------|--------------------------------------|
A|---2--2--5-4-3-2-1-2--5-4-3--|--2--2--5-4-3-2-1-2--5-4-3------------|
E|---2--2--5-4-3-2-1-2--5-4-3--|--2--2--5-4-3-2-1-2--5-4-3------------|

e|-----------------------------|-------------------------------------|
B|-----------------------------|-------------------------------------|
G|-----------------------------|-------------------------------------|
D|-----------------------------|--------------------7-5-4-3----------|
A|---2--2--5-4-3-2-1-2--5-4-3--|--2--2--5-4-3-2-1---7-5-4-3-7-5-4-3--|
E|---2--2--5-4-3-2-1-2--5-4-3--|--2--2--5-4-3-2-1-----------7-5-4-3--|

Efter Riff B, vender det tilbage til Riff A igen
og bliver spillet nogle gange hvor slut-akkorden
bare er en E5

e|---------|
B|---------|
G|---------|
D|---2~~---|
A|---2~~---|
E|---0~~---|

Efter fader sangen ind til "Motorvej"
Tap to rate this tab
# A B C D E F G H I J K L M N O P Q R S T U V W X Y Z