Song name
# A B C D E F G H I J K L M N O P Q R S T U V W X Y Z

Red Warszawa - Fuckin Op I Roeven Jonna 5 tab

Help us improve GuitareTab! Take a short survey!
----------------------------------------------------------------------------
		   Fuckin op i roeven Jonna 5 - Red Warszawa
----------------------------------------------------------------------------
Tabbed by: Bee-Ay
Email: Leviathan_ben@hotmail.com

Tuning: Standard.

tsh,, tsh,,  tsh,,tsh,,tsh,,tsh.

Riff A:
e|--------------------------------------------|
B|--------------------------------------------|
G|--------------------------------------------|
D|----9-9-9-9-9-9-9-9---10-10-10-10--5-/-7----| x3
A|----7-7-7-7-7-7-7-7---8--8--8--8---3-/-5----|
E|----7-7-7-7-7-7-7-7---8--8--8--8---3-/-5----|


e|--------------------------------------------|
B|--------------------------------------------|
G|--------------------------------------------|
D|----9-9-9-9-9-9-9-9---10----5---------------|
A|----7-7-7-7-7-7-7-7---8-----3---------------|
E|----7-7-7-7-7-7-7-7---8-----3---------------|


Riff B:
e|--------------------------------------------|
B|--------------------------------------------|
G|--------------------------------------------|
D|----9-9-9-9-9-9-9-9---10-10-10-10---5-/-7---| x3
A|----9-9-9-9-9-9-9-9---10-10-10-10---5-/-7---|
E|----7-7-7-7-7-7-7-7---8--8--8--8----3-/-5---|

e|--------------------------------------------|
B|--------------------------------------------|
G|--------------------------------------------|
D|----9-9-9-9-9-9-9-9---10----5---------------|
A|----9-9-9-9-9-9-9-9---10----3---------------|
E|----7-7-7-7-7-7-7-7---8-----3---------------|

Efter Riff B er spillet gr det tilbage til Riff A.
Efter Riff A er spillet 3 gange til, ender det bare p
en E5 akkord:

e|---------|
B|---------|
G|---------|
D|----2----|
A|----2----|
E|----0----|

Og det er sgu bare det.
Hvis du er god, s spil den i 16. del i stedet for 8. del.
- Og hvis du kan det: S er du ogs permanent sindssyg..
Related for Fuckin Op I Roeven Jonna 5 tab