Song name
# A B C D E F G H I J K L M N O P Q R S T U V W X Y Z

Red Warszawa - Wie Dumm Kann Mann Sein tab

----------------------------------
Tabbed by: Holst_
Email: CooL_lemon666@hotmail.com
----------------------------------
Tuning: D A D G B E
----------------------------------

Red warszawa dansk band med polsk fokertstavet hovedstad navn :D

--------------------------------------------------------------------------------------------

"Wie Dumm Kann Mann Sein"



* er palm mute

Intro og vers stykke
e-----------------------------------------------------------------------------------------|
b-----------------------------------------------------------------------------------------|
g-----------------------------------------------------------------------------------------|
d----------2-2-2-232-2-2--232-2-2--232-2-2------2-2-2-232-2-2--232-2-2--232-2-2-----------|
a----------2-2-2-232-2-2--232-2-2--232-2-2------2-2-2-232-2-2--232-2-2--232-2-2-----------|
d-22222222-2-2-2-232-2-2--232-2-2--232-2-2-2222-2-2-2-232-2-2--232-2-2--232-2-2-2222------|


omkvæd
e------------------------------------------------|
b------------------------------------------------|
g------------------------------------------------|
d------------------------------------------------|
a-7-6-4-2-2-0h2-4-2-2-0h2-4-2-2-0h2-4-2-0--------|
d-----------------------------------------2------|
     

jaah, den er ret enkelt så det sku være det eneste..!
     ----------------------------------
Tabbed by: Holst_
Email: CooL_lemon666@hotmail.com
----------------------------------
Tuning: D A D G B E
----------------------------------

Red warszawa dansk band med polsk fokertstavet hovedstad navn :D

--------------------------------------------------------------------------------------------

"Wie Dumm Kann Mann Sein"



* er palm mute

Intro og vers stykke
e-----------------------------------------------------------------------------------------|
b-----------------------------------------------------------------------------------------|
g-----------------------------------------------------------------------------------------|
d----------2-2-2-232-2-2--232-2-2--232-2-2------2-2-2-232-2-2--232-2-2--232-2-2-----------|
a----------2-2-2-232-2-2--232-2-2--232-2-2------2-2-2-232-2-2--232-2-2--232-2-2-----------|
d-22222222-2-2-2-232-2-2--232-2-2--232-2-2-2222-2-2-2-232-2-2--232-2-2--232-2-2-2222------|


omkvæd
e------------------------------------------------|
b------------------------------------------------|
g------------------------------------------------|
d------------------------------------------------|
a-7-6-4-2-2-0h2-4-2-2-0h2-4-2-2-0h2-4-2-0--------|
d-----------------------------------------2------|
     

jaah, den er ret enkelt så det sku være det eneste..!
     
Tap to rate this tab
 
# A B C D E F G H I J K L M N O P Q R S T U V W X Y Z