Song name
# A B C D E F G H I J K L M N O P Q R S T U V W X Y Z

Red Warszawa - Atomkrig Og Daaseoel tab

----------------------------------------------------------------------------
		     Atomkrig Og Daasoel - Red Warszawa
----------------------------------------------------------------------------
Tabbed by: Bee-Ay
Email: Leviathan_ben@hotmail.com

Tuning: Standard.


Fedt, fedt nr. Giv den gas.

P.S:
Tjek evt. symbolerne. De vil være en god hjælp til forståelse af soloen.

Vers:
e|-----------|
B|-----------|
G|*---------*|
D|*--4---2--*|
A|---4---0---|
E|---2---2---|

Omkvæd:
e|----------------------------------------------------------------------|
B|----------------------------------------------------------------------|
G|*---------------------------------------------------------------------|
D|*-7-7-7-7-7-7-7-7-7-7-7-7-7-7-7-7--6-6-6-6-6-6-6-6-6-6-6-6-6-6-6-6----|
A|--7-7-7-7-7-7-7-7-7-7-7-7-7-7-7-7--4-4-4-4-4-4-4-4-4-4-4-4-4-4-4-4----|
E|--5-5-5-5-5-5-5-5-5-5-5-5-5-5-5-5--4-4-4-4-4-4-4-4-4-4-4-4-4-4-4-4----|

e|---------------------------------------------------------------------|
B|---------------------------------------------------------------------|
G|--------------------------------------------------------------------*|
D|--4-4-4-4-4-4-4-4-4-4-4-4-4-4-4-4--2-2-2-2-2-2-2-2-2-2-2-2-2-2-2-2--*|
A|--4-4-4-4-4-4-4-4-4-4-4-4-4-4-4-4--2-2-2-2-2-2-2-2-2-2-2-2-2-2-2-2---|
E|--2-2-2-2-2-2-2-2-2-2-2-2-2-2-2-2--0-0-0-0-0-0-0-0-0-0-0-0-0-0-0-0---|

[ Solo ]

Giv den en lille smule Chorus, Reverb og så en god diskant og bund:
e|------------------------------------------------------------|
B|--//14---14----14-----14-----17----17-----15----14---\\-----|
G|--//14------14-----14----14-----14----14-----14----14\\-----|
D|------------------------------------------------------------|
A|------------------------------------------------------------|
E|------------------------------------------------------------|

e|------------------------------------------------------------|
B|--//12---12----12-----12-----14----12----14----12---\\------|
G|--//13------13-----13----13-----13----13----13------\\------|
D|------------------------------------------------------------|
A|------------------------------------------------------------|
E|------------------------------------------------------------|

e|-------------------------14-----------------------14-12--12h14-----12h14p12-12h14-----|
B|-------------12----14-----------------12----14-----------------12~----------------12~-|
G|--//11-13-11----11----11-----11-13-11----11----11-------------------------------------|
D|--------------------------------------------------------------------------------------|
A|--------------------------------------------------------------------------------------|
E|--------------------------------------------------------------------------------------|

e|-----------------/14-12--------------------------------------------------|
B|--12b14-(14)-10---------14-12-14-14b15r--12-10-9b10r-------9b10r---------|
G|------------------------------------------------------------------9------|
D|-----------------------------------------------------11-11~---------9----|
A|----------------------------------------------------------------------11-|
E|-------------------------------------------------------------------------|

e|----------------------------------------------------|
B|----------------------------------------------------|
G|------------------------------9----9h11p9~-9h11-----|
D|-----------11-------------11----9~--------------9~--|
A|--11b12r-9----11-11b12r-9---------------------------|
E|----------------------------------------------------|

Rytme i solo: Omkvæd.

Dét er det..
Hvis du er i tvivl med soloen og ikke synes den lyder rigtig nok,
er det fordi du ikke kan læse den ordenligt. Den er 100% rigtig.


Symboler:
//: Slide(s) langs gribebrættet.
/: Slide.
h: Hammer-On.
p: Pull-Off.
b: Bend.
r: "r" betyder at du skal "Release" altså slippe det bend du laver, når det lyder som vist.
Tap to rate this tab
# A B C D E F G H I J K L M N O P Q R S T U V W X Y Z