Guitaretab - guitar tabs
Song name
# A B C D E F G H I J K L M N O P Q R S T U V W X Y Z

Red Warszawa - Boesse Draebt Med Steggegaffel tab

----------------------------------------------------------------------------
	       Boesse Draebt Med Stegegaffel   - Red Warszawa
----------------------------------------------------------------------------
Tabbed by: Bee-Ay
Email: Leviathan_ben@hotmail.com

Tuning: Standard.

e|------|----------------------------------------------------------------------|
B|------|----------------------------------------------------------------------|
G|------|----------------------------------------------------------------------|
D|------|----------------------------------------------------------------------|
A|--\\--|------4---5-----2-----4---5/7--7-7--------4---5-----2-----4---4/3--3-3|
E|--\\--|--0-0-2-0-3-0-0-0-0-0-2-0-3/5--5-5----0-0-2-0-3-0-0-0-0-0-2-0-2/1--1-1|
pm:        . .   .   . .   . .   .             . .   .   . .   . .   .
[ Tab from: http://www.guitaretab.com/r/red-warszawa/74079.html ]
Efter det øverste Riff er spillet 2 gange laves disse overtoner:
e|--------------------------------------------|
B|--------------------------------------------|
G|--------------------------------------------|
D|--------------------------------------------|
A|------4---5-----2-----4---------------------|
E|--0-0-2-0-3-0-0-0-0-0-2-0--<2>-<2>-<2>-<2>--|
pm: . .   .   . .   . .   .

Overtonerne laves ganske enkelt.
Placer din pegefinger, let, på anden metalstykke der deler mellem båndene.
Det her kaldes også at "Muffle".

Psyko heavy vers Riff:
e|------------------------------------------------------------|
B|------------------------------------------------------------|
G|------------------------------------------------------------|
D|--------0-------2-0---------0-------2-0--------0-------2-0--|
A|--2--2--0--2-2--2-0---2--2--0--2-2--2-0--2--2--0--2-2--2-0--|
E|--2--2-----2-2--------2--2-----2-2-------2--2-----2-2-------|

I slutningen af Riffet er der lige en "lille" ændring som spilles hurtigt:
e|--------------------------|
B|--------------------------|
G|--------------------------|
D|--------0----0---0-----0--|
A|--2--2--0--2-0-2-0-2-2-0--|
E|--2--2-----2---2---2-2----|

Omkvæd:
e|-----------------------------|
B|-----------------------------|
G|*---------------------------*|
D|*--9---------------0--------*|
A|---7--9--12--9--8--0--3--2---|
E|---0--7--11--7--7-----3--2---|

Røv iorden sang. SLÅ IHJEL!
Related for Boesse Draebt Med Steggegaffel tab
×
Boesse Draebt Med Steggegaffel