Song name
# A B C D E F G H I J K L M N O P Q R S T U V W X Y Z

Red Warszawa - Kkk-salat tab

Red Warszawa - KKK-Salat

Jeg skriver på dansk! For der er nok ikke nogen englændere der læser denne tab....

Har i forslag til min tab? er den ikke korrekt?

Marzziematrix@hotmail.com!

Vers Riff
E|7-0-0-0-0-0-0-0-|6-0-0-0-0-0-0-0-|7-0-0-0-0-0-0-0-|2-0-------------|
A|----------------|----------------|----------------|----0-2-3-2-0---|
D|----------------|----------------|----------------|----------------|
G|----------------|----------------|----------------|----------------|
H|----------------|----------------|----------------|----------------|
E|----------------|----------------|----------------|----------------|

Bridge Riff
E|6-5-3---6-5-3---|6-5-3---6-5-3---|7-0-0-0-0-0-0-0-|6-0-0-0-0-0-0-0-|
A|----------------|----------------|----------------|----------------|
D|----------------|----------------|----------------|----------------|
G|----------------|----------------|----------------|----------------|
H|----------------|----------------|----------------|----------------|
E|----------------|----------------|----------------|----------------|

Overgang til Omkvæd Riff
E|6-5-3---6-5-3---|6-5-3---6-5-3---|6-5-3---6-5-3---|6-5-3---6-5-3---|
A|----------------|----------------|----------------|----------------|
D|----------------|----------------|----------------|----------------|
G|----------------|----------------|----------------|----------------|
H|----------------|----------------|----------------|----------------|
E|----------------|----------------|----------------|----------------|

Omkvæd Riff
E|----------------|3-3-3-3-5-5-5-5-|
A|7-7-7-7-5-5-5-5-|5-5-5-5-7-7-7-7-|
D|9-9-9-9-7-7-7-7-|----------------|
G|----------------|----------------|
H|----------------|----------------|
E|----------------|----------------|

Fade out i Overgang til Omkvæd Riff...

Det var det! Mail til mig hvis i ser fejl af nogen art. Er lidt i tvivl med Vers riff. 
ellers skulle den være 100%

Nem sang! Men stadig fed..
Tap to rate this tab
 
# A B C D E F G H I J K L M N O P Q R S T U V W X Y Z