Song name
# A B C D E F G H I J K L M N O P Q R S T U V W X Y Z

Red Warszawa - Return Of The Glidefedt tab

Mojn..! Fik lige lyst til at tabbe denne glædelige positive sang... Men jeg havde sgu
så meget tid igår aftes.. Så i får sgu kun introen da det andet kun er halvt færdigt.. Men
jeg engang får HELE sangen tabbet skal i nok få den

Trommehvirvel trommehvirvel...

E|------------------|3x
H|------------------|
G|------------------|
D|--6-5-------------|
A|-7----6-7--2-3-3-3|
E|0--0-0-0-0-0-1-1-1|

E|--------------|1x
H|--------------|
G|--------------|
D|--6-5-----7-9-|
A|-7----6-7-----|
E|0----0-0-0----|

Mellemspil
E|---------------------------|
H|---------------------------|
G|---------------------------|
D|---------------------------|
A|----3-3---------3---3-5-5-5|
E|0-0-1-1-0-0-0-0-1-0-1-3-3-3|

Introriffet er også versriff. Du spille vers 2 gange men anden gang går du bare direkte
til omkvædet.. Som jeg næsten er færdig med.. har bare ikke så meget tid den næste tid
jeg skal til Tyskland hele ugen.. Men når jeg engang bliver færdig med sangen skal i 
jeg sagde før) nok få den.
Tap to rate this tab
 
# A B C D E F G H I J K L M N O P Q R S T U V W X Y Z