Guitaretab - guitar tabs
Song name
# A B C D E F G H I J K L M N O P Q R S T U V W X Y Z

Red Warszawa - Burn Er Dumme Og Grimme tab

Red Warszawa - BÝrn er dumme og grimme
Tabbed by Daniel Jallov

Guitar

Intro (bass)

     W                W                 
E||------------------------------------|
B||------------------------------------|
G||------------------------------------|
D||------------------------------------|
A||------------------------------------|
E||------------------------------------|


  W                W                 
------------------------------------|
------------------------------------|
------------------------------------|
------------------------------------|
------------------------------------|
------------------------------------|

Intro, verse

  Q    E  E  Q      Q    Q    E  E  Q      Q     
------------------------------------------------|
------------------------------------------------|
------------------------------------------------|
------------------<>3--------------------<>3----|
--2-------2--3-----------2-------2--3-----------|
--0-------0--1-----------0-------0--1-----------|


                                 PM    PM PM PM  
  Q    E  E  Q      Q    Q    E  E  E  E  E  E   
------------------------------------------------|
------------------------------------------------|
------------------------------------------------|
------------------<>3---------------------------|
--2-------2--3-----------2-------2-----2--2--3--|
--0-------0--1-----------0-------0-----0--0--1--|


Chorus
                       PM PM PM PM PM          
  Q    E  E  Q    Q    E  E  E  E  E  E  Q     
----------------------------------------------|
----------------------------------------------|
----------------------------------------------|
--5-------5--4----3---------------------------|
--5-------5--4----3----2--2--2--2--2-----3----|
--3-------3--2----1----0--0--0--0--0--1-------|


                       PM PM PM PM PM         
  Q    E  E  Q    Q    E  E  E  E  E  Q.      
---------------------------------------------|
---------------------------------------------|
---------------------------------------------|
--5-------5--4----3--------------------------|
--5-------5--4----3----2--2--2--2--2---------|
--3-------3--2----1----0--0--0--0--0---------|

Verse 2

  Q    E  E  Q      Q    Q    E  E  Q      Q     
------------------------------------------------|
------------------------------------------------|
------------------------------------------------|
------------------<>3--------------------<>3----|
--2-------2--3-----------2-------2--3-----------|
--0-------0--1-----------0-------0--1-----------|


                                 PM    PM PM PM  
  Q    E  E  Q      Q    Q    E  E  E  E  E  E   
------------------------------------------------|
------------------------------------------------|
------------------------------------------------|
------------------<>3---------------------------|
--2-------2--3-----------2-------2-----2--2--3--|
--0-------0--1-----------0-------0-----0--0--1--|


Chorus
                       PM PM PM PM PM          
  Q    E  E  Q    Q    E  E  E  E  E  E  Q     
----------------------------------------------|
----------------------------------------------|
----------------------------------------------|
--5-------5--4----3---------------------------|
--5-------5--4----3----2--2--2--2--2-----3----|
--3-------3--2----1----0--0--0--0--0--1-------|


                       PM PM PM PM PM           
  Q    E  E  Q    Q    E  E  E  E  E  E  Q      
-----------------------------------------------|
-----------------------------------------------|
-----------------------------------------------|
--5-------5--4----3----------------------------|
--5-------5--4----3----2--2--2--2--2-----1s----|
--3-------3--2----1----0--0--0--0--0-----------|

Solo

  W                 H.           Q      
---------------------------------------|
---------------------------------------|
---------------------------------------|
---------------------------------------|
--7~----------------L------------7s----|
---------------------------------------|

[ Tab from: http://www.guitaretab.com/r/red-warszawa/91479.html ]
  W                 H.           Q      
---------------------------------------|
---------------------------------------|
---------------------------------------|
---------------------------------------|
--1~----------------L------------1s----|
---------------------------------------|


  W                 H.           Q      
---------------------------------------|
---------------------------------------|
---------------------------------------|
---------------------------------------|
--7~----------------L------------7s----|
---------------------------------------|


  H.            E  S  S W                 
-----------------------------------------|
-----------------------------------------|
-----------------------------------------|
-----------------------------------------|
--1~------------L--1s-2------------------|
------------------------0----------------|


  E  H.           E  H        H         
---------------------------------------|
---------------------------------------|
-----4---------------3--------2--------|
--5--L------------L--4--------3--------|
-----7------------L--------------------|
---------------------------------------|


  W                W                 
------------------------------------|
------------------------------------|
--1----------------L----------------|
--2----------------L----------------|
------------------------------------|
------------------------------------|


  |-----3----|    |-----3----|    |----3----|    |----3----|     
  Q    Q     Q    Q    Q     Q    Q    Q    Q    Q    Q    Q     
----------------------------------------------------------------|
----------------------------------------------------------------|
--9---------------9---------------8--------------7--------------|
-------9---------------9---------------8--------------7---------|
------------10--------------10--------------9--------------8----|
----------------------------------------------------------------|


  W                H         E    Q.      
-----------------------------------------|
-----------------------------------------|
-----------------------------------------|
-----------------------------------------|
--7----------------L--------(7)\---------|
-----------------------------------------|

Verse 3

  W                H.             Q     
---------------------------------------|
---------------------------------------|
---------------------------------------|
--------------------------------<>3----|
---------------------------------------|
---------------------------------------|


  W                H.             Q     
---------------------------------------|
---------------------------------------|
---------------------------------------|
--------------------------------<>3----|
---------------------------------------|
---------------------------------------|


Chorus
                       PM PM PM PM PM          
  Q    E  E  Q    Q    E  E  E  E  E  E  Q     
----------------------------------------------|
----------------------------------------------|
----------------------------------------------|
--5-------5--4----3---------------------------|
--5-------5--4----3----2--2--2--2--2-----3----|
--3-------3--2----1----0--0--0--0--0--1-------|


                       PM PM PM PM PM          
  Q    E  E  Q    Q    E  E  E  E  E  Q.       
---------------------------------------------||
---------------------------------------------||
---------------------------------------------||
--5-------5--4----3--------------------------||
--5-------5--4----3----2--2--2--2--2---------||
--3-------3--2----1----0--0--0--0--0---------||




Duration Legend
---------------
W - whole
H - half
Q - quarter
E - 8th
S - 16th
T - 32nd
X - 64th
. - note dotted
|-n-|  - n-tuplets


Tablature Legend
----------------
L - tied note
x - dead note
g - grace note
(n) - ghost note
> - accentuded note
NH - natural harmonic
AH - artificial harmonic
TH - tapped harmonic
SH - semi harmonic
PH - pitch harmonic
h - hammer on
p - pull off
b - bend
br - bendRelease
pb - preBend
pbr - preBendRelease
brb - bendReleaseBend
\n/ - tremolo bar dip
\n - tremolo bar dive
-/n - tremolo bar Release up
/n\ - tremolo bar inverted dip
/n - tremolo bar return
-\n - tremolo bar Release down
S - shift slide
s - legato slide
/ -  slide into from below or out of upwards
\ -  slide into from above or out of downwards
~ - vibrato
W - wide vibrato
tr - trill
TP - tremolo picking
T - tapping
S - slap
P - pop
< - fade in
^ - brush up
v - brush down
Related for Burn Er Dumme Og Grimme tab