Song name
# A B C D E F G H I J K L M N O P Q R S T U V W X Y Z

Red Warszawa - Ggemad tab

Help us improve GuitareTab! Take a short survey!
Intro riff;
-------------------------|
-------------------------|
---4------0--------------|
-2---2-0-0---7-9-7-5-----|
---------------------7-5-|
-------------------------|x2

-------------------------------------------|
-------------------------------------------|
---4------0--------------------------------|
-2---2-0-0---7-9-7-5---5-2--5-5-7-9-7-5----|
---------------------7-------7---------7-5-|
-------------------------------------------|

-------------------------|
-------------------------|
---4------0--------------|
-2---2-0-0---7-9-7-5-----|
---------------------7-5-|
-------------------------|x5

-------------------------------------------|
-------------------------------------------|
---4------0--------------------------------|
-2---2-0-0---7-9-7-5---5-2--5-5-7-9-7-5----|
---------------------7-------7---------7-5-|
-------------------------------------------|


Vers;
--------------------------|
--------------------------|
--------------------------|
-2222-7777-5555-9999------|
-2222-7777-5555-9999------|
-0000-5555-3333-7777------|x8


Omk;
--------------------------------------|
--------------------------------------|
--------------------------------------|
-3333333333333333--22222222--55555555-|
-3333333333333333--22222222--55555555-|
-1111111111111111--00000000--33333333-|x2
Related for Ggemad tab