Guitaretab - guitar tabs
Song name
# A B C D E F G H I J K L M N O P Q R S T U V W X Y Z

Red White And Blue - The Public tab

The Public - Red White and Blue
Tabbed By: dj
EMail: nephilim034@lycos.com

By: DJ    > - strum continuously  

e|-----------------------|
B|---------verses--------|
G|-----------------------|
D|-7>>>>5>>>>7>>>>5>>>>7-|
A|-5>>>>3>>>>5>>>>3>>>>5-|
E|-----------------------|

e|-----------------------------------|
B|--------------chorus---------------|
G|-----------------------------------|
D|-7>>---7->>-----7>>---7>>----------|
A|-5>>8>>5>>8>10>>5>>8>>5>>8ии101010-|
E|----6>>---6>8>>>---6>>---6ии8-8-8--|
[ Tab from: http://www.guitaretab.com/r/red-white-and-blue/43313.html ]
Working on solo.
e|-------9-------------------12-12---12-11-12-12/14-12-11-12-11-9-|
B|-9-b^^---12-9--9b^^---(x2) 10-10-10-----------------------------|
G|-11b^^--------12b^^-9-------------------------------------------|
D|----------------------------------------------------------------|
A|----------------------------------------------------------------|
E|----------------------------------------------------------------|

e|--------------------------------------------------------------|
B|-10-9-7-(x2)-12-9-7-(x2)-10-9-7-(x2)--12-10-9-(x2)-9-b^^-9-b^^|
G|---------------------------------------------------11b^^-12b^^|
D|--------------------------------------------------------------|
A|--------------------------------------------------------------|
E|--------------------------------------------------------------|