Song name
# A B C D E F G H I J K L M N O P Q R S T U V W X Y Z

Red - Fight Inside tab

Band:   Red
Song:   Fight Inside
Album:  Innocence & Instinct
Tuning: Bb F Bb Eb G C

Before you read the tab I know what you’re all thinking “what a crazy tuning”!
I’d also like to thank RED for this song. I talked to Anthony (guitarist) and
this is the tuning RED used for this song.

He also told me “new record Feb 10th tell all your friends”

Legend
p-pull off                    h-hammer on                     /-slide up

Intro: Guitar for Piano (Clean)
 C|---------------------------------------------------------------------------|
 G|--------15---------15-----------13---------13-----15----13---15----13------|
Eb|--14-12------14-12--------14-12------14-12-----------12---------12---------|
Bb|---------------------------------------------------------------------------|
 F|---------------------------------------------------------------------------|
Bb|---------------------------------------------------------------------------|
                                                                              |
Intro: Guitar for Piano (Clean)                                               |
 C|-------------------------------------17------------------------------------|
 G|---------------------------------------------------------------------------|
Eb|---------------------------------------------------------------------------|
Bb|---------------------------------------------------------------------------|
 F|---------------------------------------------------------------------------|
Bb|---------------------------------------------------------------------------|

Intro: Guitar for Piano (Clean)
 C|---------------------------------------------------------------------------|
 G|--13---------------------------------15---------15---------13---------13---|
Eb|--14h15-14-12-14--15-14-12-14--14-12------14-12------14-12------14-12------|
Bb|---------------------------------------------------------------------------|
 F|---------------------------------------------------------------------------|
Bb|---------------------------------------------------------------------------|
                                                                              |
Intro: Guitar for Piano (Clean)                                               |
 C|-------------------------------------17-------------------------17---------|
 G|---------------------------------------------------------------------------|
Eb|---------------------------------------------------------------------------|
Bb|---------------------------------------------------------------------------|
 F|---------------------------------------------------------------------------|
Bb|---------------------------------------------------------------------------|

Intro: Guitar for Piano (Clean)
 C|---------------------------------------------------------------------------|
 G|--15----13---15----13------13----------------------------------------------|
Eb|-----12---------12---------14h15-14-12-14--15-14-12-14---------------------|
Bb|---------------------------------------------------------------------------|
 F|---------------------------------------------------------------------------|
Bb|---------------------------------------------------------------------------|
                                                                              |
Intro: Guitar for Piano (Clean)                                               |
 C|---------------------------------17--------18------------------------------|
 G|---------------------------------------------------------------------------|
Eb|---------------------------------------------------------------------------|
Bb|---------------------------------------------------------------------------|
 F|---------------------------------------------------------------------------|
Bb|---------------------------------------------------------------------------|

Intro: Guitar 1 (Distorted)
 C|---------------------------------------------------------------------------|
 G|---------------------------------------------------------------------------|
Eb|-----------------5-/7--------------------8-/10--------------------5-/7-----|
Bb|-----------------x--x--------------------x--x---------------------x--x-----|
 F|-----------------3-/5--------------------6-/8---------------------3-/5-----|
Bb|--5--0--3-h5--0--------0--6--0--3-h6--0---------0--5--0--3-h5--0-----------|

Intro: Guitar 1 (Distorted)
 C|---------------------------------------------------------------------------|
 G|---------------------------------------------------------------------------|
Eb|--------------------8-\5-/7-----------------5-/7--------------------8-/10--|
Bb|--------------------x--x--x-----------------x--x--------------------x--x---|
 F|--------------------6-\3-/5-----------------3-/5--------------------6-/8---|
Bb|--0--6--0--3-h6--0-----------5--0--3-h5--0--------0--6--0--3-h6--0---------|

Intro: Guitar 1 (Distorted)
 C|---------------------------------------------------------------------------|
 G|---------------------------------------------------------------------------|
Eb|--------------------5-/7--------------------8-\5-/7------------------------|
Bb|--------------------x--x--------------------x--x--x------------------------|
 F|--------------------3-/5--------------------6-\3-/5------------------------|
Bb|--0--5--0--3-h5--0--------0--6--0--3-h6--0---------------------------------|

Verse 1: Guitar for Piano (Clean) PLAY ENTIRE VERSE TWO TIMES
 C|---------------------------------------------------------------------------|
 G|--------15---------15-----------13---------13-----15----13---15----13------|
Eb|--14-12------14-12--------14-12------14-12-----------12---------12---------|
Bb|---------------------------------------------------------------------------|
 F|---------------------------------------------------------------------------|
Bb|---------------------------------------------------------------------------|

Verse 1: Guitar for Piano (Clean)
 C|---------------------------------------------------------------------------|
 G|--13---------------------------------15---------15---------13---------13---|
Eb|--14h15-14-12-14--15-14-12-14--14-12------14-12------14-12------14-12------|
Bb|---------------------------------------------------------------------------|
 F|---------------------------------------------------------------------------|
Bb|---------------------------------------------------------------------------|

Verse 1: Guitar for Piano (Clean)
 C|---------------------------------------------------------------------------|
 G|--15----13---15----13------13----------------------------------------------|
Eb|-----12---------12---------14h15-14-12-14--15-14-12-14---------------------|
Bb|---------------------------------------------------------------------------|
 F|---------------------------------------------------------------------------|
Bb|---------------------------------------------------------------------------|

Chorus: Guitar 1 (Distorted)
 C|---------------------------------------------------------------------------|
 G|---------------------------------------------------------------------------|
Eb|---------------------------------------------------------------------------|
Bb|--0---0-0-0-0-0-0---3---3-3-3-3-3-3---8---8-8-8-8-8-8---5---5-5-5-5-5-5-5--|
 F|--0---0-0-0-0-0-0---3---3-3-3-3-3-3---8---8-8-8-8-8-8---5---5-5-5-5-5-5-5--|
Bb|--0---0-0-0-0-0-0---3---3-3-3-3-3-3---8---8-8-8-8-8-8---5---5-5-5-5-5-5-5--|

Chorus: Guitar 1 (Distorted)
 C|---------------------------------------------------------------------------|
 G|---------------------------------------------------------------------------|
Eb|---------------------------------------------------------------------------|
Bb|--0---0-0-0-0-0-0---3---3-3-3-3-3-3---8---8-8-8-8-8-8---10--10101010101010-|
 F|--0---0-0-0-0-0-0---3---3-3-3-3-3-3---8---8-8-8-8-8-8---10--10101010101010-|
Bb|--0---0-0-0-0-0-0---3---3-3-3-3-3-3---8---8-8-8-8-8-8---10--10101010101010-|

Post Chorus: Guitar 1 (Distorted)
 C|---------------------------------------------------------------------------|
 G|---------------------------------------------------------------------------|
Eb|-----------------5-/7--------------------8-/10--------------------5-/7-----|
Bb|-----------------x--x--------------------x--x---------------------x--x-----|
 F|-----------------3-/5--------------------6-/8---------------------3-/5-----|
Bb|--5--0--3-h5--0--------0--6--0--3-h6--0---------0--5--0--3-h5--0-----------|

Post Chorus: Guitar 1 (Distorted)
 C|---------------------------------------------------------------------------|
 G|---------------------------------------------------------------------------|
Eb|--------------------8-\5-/7------------------------------------------------|
Bb|--------------------x--x--x------------------------------------------------|
 F|--------------------6-\3-/5------------------------------------------------|
Bb|--0--6--0--3-h6--0---------------------------------------------------------|

Verse 12Guitar for Piano (Clean) PLAY ENTIRE VERSE TWO TIMES
 C|--------13----------13----------12----------12----------12----------12-----|
 G|----------15----------15----------13----------13----------13----------13---|
Eb|--14-12-------14-12-------14-12-------14-12-------14-12-------14-12--------|
Bb|---------------------------------------------------------------------------|
 F|---------------------------------------------------------------------------|
Bb|---------------------------------------------------------------------------|

Verse 2: Guitar for Piano (Clean)
 C|-------------------------------------13---------13---------12---------12---|
 G|--13-----------------------------------15---------15---------13---------13-|
Eb|--14h15-14-12-14--15-14-12-14--14-12------14-12------14-12------14-12------|
Bb|---------------------------------------------------------------------------|
 F|---------------------------------------------------------------------------|
Bb|---------------------------------------------------------------------------|

Verse 2: Guitar for Piano (Clean)
 C|-------12---------12-------------------------------------------------------|
 G|---------13----------13-------13-------------------------------------------|
Eb|--14-12-----14-12-------------14h15-14-12-14--15-14-12-14------------------|
Bb|---------------------------------------------------------------------------|
 F|---------------------------------------------------------------------------|
Bb|---------------------------------------------------------------------------|

Chorus: Guitar 1 (Distorted) PLAY CHORUS TWO TIMES
 C|---------------------------------------------------------------------------|
 G|---------------------------------------------------------------------------|
Eb|---------------------------------------------------------------------------|
Bb|--0---0-0-0-0-0-0---3---3-3-3-3-3-3---8---8-8-8-8-8-8---5---5-5-5-5-5-5-5--|
 F|--0---0-0-0-0-0-0---3---3-3-3-3-3-3---8---8-8-8-8-8-8---5---5-5-5-5-5-5-5--|
Bb|--0---0-0-0-0-0-0---3---3-3-3-3-3-3---8---8-8-8-8-8-8---5---5-5-5-5-5-5-5--|

Chorus: Guitar 1 (Distorted)
 C|---------------------------------------------------------------------------|
 G|---------------------------------------------------------------------------|
Eb|---------------------------------------------------------------------------|
Bb|--0---0-0-0-0-0-0---3---3-3-3-3-3-3---8---8-8-8-8-8-8---10--10101010101010-|
 F|--0---0-0-0-0-0-0---3---3-3-3-3-3-3---8---8-8-8-8-8-8---10--10101010101010-|
Bb|--0---0-0-0-0-0-0---3---3-3-3-3-3-3---8---8-8-8-8-8-8---10--10101010101010-|

Bridge: Guitar 1 (Distorted)
 C|---------------------------------------------------------------------------|
 G|---------------------------------------------------------------------------|
Eb|--2--2---------------------2--2---------------------2--2-------------------|
Bb|--0--0---------------------0--0---------------------0--0-------------------|
 F|--0--0---------------------0--0---------------------0--0-------------------|
Bb|--0--0---------------------0--0---------------------0--0-------------------|

Bridge: Guitar 1 (Distorted)
 C|---------------------------------------------------------------------------|
 G|---------------------------------------------------------------------------|
Eb|--2--2---------------------2--2---------------------2--2-------------------|
Bb|--0--0---------------------0--0---------------------0--0-------------------|
 F|--0--0---------------------0--0---------------------0--0-------------------|
Bb|--0--0---------------------0--0---------------------0--0-------------------|

Bridge: Guitar 1 (Distorted)
 C|---------------------------------------------------------------------------|
 G|---------------------------------------------------------------------------|
Eb|---------------------------------------------------------------------------|
Bb|---------------------------------------------------------------------------|
 F|---------------------------------------------------------------------------|
Bb|--3-0-1-7-3-0-1-3-4-0-1-8-4-0-1-4--3-0-1-7-3-0-1-3-4-0-1-8-4-0-1-4---------|

Bridge: Guitar 1 (Distorted)
 C|---------------------------------------------------------------------------|
 G|---------------------------------------------------------------------------|
Eb|---------------------------------------------------------------------------|
Bb|---------------------------------------------------------------------------|
 F|---------------------------------------------------------------------------|
Bb|--3-0-1-7-3-0-1-3-4-0-1-8-4-0-1-4--3-0-1-7-3-0-1-3-4-0-1-8-4-0-1-4---------|

Chorus: Guitar 1 (Distorted) PLAY CHORUS TWO TIMES
 C|---------------------------------------------------------------------------|
 G|---------------------------------------------------------------------------|
Eb|---------------------------------------------------------------------------|
Bb|--0---0-0-0-0-0-0---3---3-3-3-3-3-3---8---8-8-8-8-8-8---5---5-5-5-5-5-5-5--|
 F|--0---0-0-0-0-0-0---3---3-3-3-3-3-3---8---8-8-8-8-8-8---5---5-5-5-5-5-5-5--|
Bb|--0---0-0-0-0-0-0---3---3-3-3-3-3-3---8---8-8-8-8-8-8---5---5-5-5-5-5-5-5--|

Chorus: Guitar 1 (Distorted)
 C|---------------------------------------------------------------------------|
 G|---------------------------------------------------------------------------|
Eb|---------------------------------------------------------------------------|
Bb|--0---0-0-0-0-0-0---3---3-3-3-3-3-3---8---8-8-8-8-8-8---10--10101010101010-|
 F|--0---0-0-0-0-0-0---3---3-3-3-3-3-3---8---8-8-8-8-8-8---10--10101010101010-|
Bb|--0---0-0-0-0-0-0---3---3-3-3-3-3-3---8---8-8-8-8-8-8---10--10101010101010-|

Outro: Guitar 1 (Distorted)
 C|---------------------------------------------------------------------------|
 G|---------------------------------------------------------------------------|
Eb|---------------------------------------------------------------------------|
Bb|---------------------------------------------------------------------------|
 F|---------------------------------------------------------------------------|
Bb|--3-0-1-7-3-0-1-3-4-0-1-8-4-0-1-4------------------------------------------|

Outro: Guitar 1 (Distorted)
 C|---------------------------------------------------------------------------|
 G|---------------------------------------------------------------------------|
Eb|---------------------------------------------------------------------------|
Bb|---------------------------------------------------------------------------|
 F|---------------------------------------------------------------------------|
Bb|--3-0-1-7-3-0-1-3-4-0-1-8-4-0-1-4------------------------------------------|

Intro: Guitar 1 (Distorted)
 C|---------------------------------------------------------------------------|
 G|---------------------------------------------------------------------------|
Eb|-----------------5-/7--------------------8-/10--------------------5-/7-----|
Bb|-----------------x--x--------------------x--x---------------------x--x-----|
 F|-----------------3-/5--------------------6-/8---------------------3-/5-----|
Bb|--5--0--3-h5--0--------0--6--0--3-h6--0---------0--5--0--3-h5--0-----------|

Intro: Guitar 1 (Distorted)
 C|---------------------------------------------------------------------------|
 G|---------------------------------------------------------------------------|
Eb|--------------------8-\5-/7-----------------5-/7--------------------8-/10--|
Bb|--------------------x--x--x-----------------x--x--------------------x--x---|
 F|--------------------6-\3-/5-----------------3-/5--------------------6-/8---|
Bb|--0--6--0--3-h6--0-----------5--0--3-h5--0--------0--6--0--3-h6--0---------|

Intro: Guitar 1 (Distorted)
 C|---------------------------------------------------------------------------|
 G|---------------------------------------------------------------------------|
Eb|--------------------5-/7--------------------8-\5-/7------------------------|
Bb|--------------------x--x--------------------x--x--x------------------------|
 F|--------------------3-/5--------------------6-\3-/5------------------------|
Bb|--0--5--0--3-h5--0--------0--6--0--3-h6--0---------------------------------|

Finished!
Tap to rate this tab
# A B C D E F G H I J K L M N O P Q R S T U V W X Y Z