Song name
# A B C D E F G H I J K L M N O P Q R S T U V W X Y Z

Red - Breathe Into Me tab

Red
Breathe Into Me
tabbed by U B the band
tuning Db Ab Db Gb Bb Eb

Legend:
pm-palm mute
x-don't play
\-slide down
/-slide up
x#-how many times to play...example(chorus)

Intro: 00:00 guitar 1 (palm muted)
Eb|-------------------------------------|
Bb|-------------------------------------|
Gb|-------------------------------------|
Db|-------------------------------------|
Ab|--------8-0---------------5-0--------|
Db|--0-0-0-----10-8-8--0-0-0-----8-7-7--|

Eb|-------------------------------------|
Bb|-------------------------------------|
Gb|-------------------------------------|
Db|-------------------------------------|
Ab|--------8-0---------------5-0--------|
Db|--0-0-0-----10-8-8--0-0-0-----8-7-8--|

Eb|-------------------------------------|
Bb|-------------------------------------|
Gb|-------------------------------------|
Db|-------------------------------------|
Ab|--------8-0---------------5-0--------|
Db|--0-0-0-----10-8-8--0-0-0-----8-7-7--|
               
Eb|-----------------------------|
Bb|-----------------------------|
Gb|-----------------------------|
Db|-----------------------------|
Ab|--------8-0---------------5--|
Db|--0-0-0-----10-8-8--0-0-0----|
                end palm mute ^

Distorted: 00:11 both guitars
Eb|-------------------------|
Bb|-------------------------|
Gb|-----10-----------7------|
Db|------x-----------x------|
Ab|--0-0-8-10-8--0-0-5-8-7--|
Db|--0-0---10-8--0-0---8-7--|

Eb|---------------------------|
Bb|---------------------------|
Gb|-----10-----------7--------|
Db|------x-----------x--------|
Ab|--0-0-8-10-8--0-0-5-8-7-8--|
Db|--0-0---10-8--0-0---8-7-8--|

Eb|-------------------------|
Bb|-------------------------|
Gb|-----10-----------7------|
Db|------x-----------x------|
Ab|--0-0-8-10-8--0-0-5-8-7--|
Db|--0-0---10-8--0-0---8-7--|

Eb|---------------------|
Bb|---------------------|
Gb|-----10--------------|
Db|------x--------------|
Ab|--0-0-8-10-8--0-0-0--|
Db|--0-0---10-8--0-0-0--|
                pm

Verse 1: 00:23 guitar 1 (low volume)
Eb|-------------------------|
Bb|-------------------------|
Gb|-----10-----------7------|
Db|------x-----------x------|
Ab|--0-0-8-10\8--0-0-5-8\7--|
Db|--0-0---10\8--0-0---8\7--|

Eb|---------------------------|
Bb|---------------------------|
Gb|-----10-----------7--------|
Db|------x-----------x--------|
Ab|--0-0-8-10\8--0-0-5-8\7/8--|
Db|--0-0---10\8--0-0---8\7/8--|

Eb|-------------------------|
Bb|-------------------------|
Gb|-----10-----------7------|
Db|------x-----------x------|
Ab|--0-0-8-10\8--0-0-5-8\7--|
Db|--0-0---10\8--0-0---8\7--|

Eb|--------------|
Bb|--------------|
Gb|-----10-------|
Db|------x-------|
Ab|--0-0-8-10\8--|
Db|--0-0---10\8--|

Distorted: 00:33 both guitars
Eb|---------------|
Bb|---------------|
Gb|---------------|
Db|---------------|
Ab|--0-0-1-0-3-1--|
Db|--0-0-1-0-3-1--|

Eb|-------------------------|
Bb|-------------------------|
Gb|-----10-----------7------|
Db|------x-----------x------|
Ab|--0-0-8-10-8--0-0-5-8-7--|
Db|--0-0---10-8--0-0---8-7--|

Eb|---------------------------|
Bb|---------------------------|
Gb|-----10-----------7--------|
Db|------x-----------x--------|
Ab|--0-0-8-10-8--0-0-5-8-7-8--|
Db|--0-0---10-8--0-0---8-7-8--|

Eb|-------------------------|
Bb|-------------------------|
Gb|-----10-----------7------|
Db|------x-----------x------|
Ab|--0-0-8-10-8--0-0-5-8-7--|
Db|--0-0---10-8--0-0---8-7--|

Eb|---------------------|
Bb|---------------------|
Gb|-----10--------------|
Db|------x--------------|
Ab|--0-0-8-10-8--0-1-1--|
Db|--0-0---10-8--0-1-1--|
                pm

Chorus: 00:46 both guitars
Eb|-----------------------------------|
Bb|-----------------------------------|
Gb|-----------------------------------|
Db|--0-0-0-0-0-0-0-0-8-8-8-8-8-8-8-8--|
Ab|--0-0-0-0-0-0-0-0-8-8-8-8-8-8-8-8--|
Db|--0-0-0-0-0-0-0-0-8-8-8-8-8-8-8-8--|

Eb|-----------------------------------|
Bb|-----------------------------------|
Gb|------------------5-5-5-5-5-5-5-5--|
Db|--3-3-3-3-3-3-3-3-5-5-5-5-5-5-5-5--|
Ab|--3-3-3-3-3-3-3-3-3-3-3-3-3-3-3-3--|
Db|--3-3-3-3-3-3-3-3------------------|

Eb|-----------------------------------|
Bb|-----------------------------------|
Gb|-----------------------------------|
Db|--0-0-0-0-0-0-0-0-8-8-8-8-8-8-8-8--|
Ab|--0-0-0-0-0-0-0-0-8-8-8-8-8-8-8-8--|
Db|--0-0-0-0-0-0-0-0-8-8-8-8-8-8-8-8--|

Eb|--------------------------------------|
Bb|--------------------------------------|
Gb|--------------------------------------|
Db|--3-3-3-3-3-3-3-3-1--1--1-------------|
Ab|--3-3-3-3-3-3-3-3-1--1--1--0-1-0-3-1--|
Db|--3-3-3-3-3-3-3-3-1--1--1--0-1-0-3-1--|

Eb|-------------------------|
Bb|-------------------------|
Gb|-----10-----------7------|
Db|------x-----------x------|
Ab|--0-0-8-10-8--0-0-5-8-7--|
Db|--0-0---10-8--0-0---8-7--|

Eb|---------------------|
Bb|---------------------|
Gb|-----10--------------|
Db|------x--------------|
Ab|--0-0-8-10-8--0-0-0--|
Db|--0-0---10-8--0-0-0--|
                pm

Verse 2: 01:15 guitar 1 (low volume)
Eb|-------------------------|
Bb|-------------------------|
Gb|-----10-----------7------|
Db|------x-----------x------|
Ab|--0-0-8-10\8--0-0-5-8\7--|
Db|--0-0---10\8--0-0---8\7--|

Eb|---------------------------|
Bb|---------------------------|
Gb|-----10-----------7--------|
Db|------x-----------x--------|
Ab|--0-0-8-10\8--0-0-5-8\7/8--|
Db|--0-0---10\8--0-0---8\7/8--|

Fill-in: 01:21 guitar 2 (palm muted)
Eb|----------------------|
Bb|----------------------|
Gb|----------------------|
Db|----------------------|
Ab|--00--0--00--0--00-0--|
Db|--00--0--00--0--00-0--|

Eb|-------------------------|
Bb|-------------------------|
Gb|-----10-----------7------|
Db|------x-----------x------|
Ab|--0-0-8-10\8--0-0-5-8\7--|
Db|--0-0---10\8--0-0---8\7--|

Eb|--------------|
Bb|--------------|
Gb|-----10-------|
Db|------x-------|
Ab|--0-0-8-10\8--|
Db|--0-0---10\8--|

Distorted: 01:25 both guitars
Eb|---------------|
Bb|---------------|
Gb|---------------|
Db|---------------|
Ab|--0-0-1-0-3-1--|
Db|--0-0-1-0-3-1--|

Eb|-------------------------|
Bb|-------------------------|
Gb|-----10-----------7------|
Db|------x-----------x------|
Ab|--0-0-8-10-8--0-0-5-8-7--|
Db|--0-0---10-8--0-0---8-7--|

Eb|---------------------------|
Bb|---------------------------|
Gb|-----10-----------7--------|
Db|------x-----------x--------|
Ab|--0-0-8-10-8--0-0-5-8-7-8--|
Db|--0-0---10-8--0-0---8-7-8--|

Eb|-------------------------|
Bb|-------------------------|
Gb|-----10-----------7------|
Db|------x-----------x------|
Ab|--0-0-8-10-8--0-0-5-8-7--|
Db|--0-0---10-8--0-0---8-7--|

Eb|---------------------|
Bb|---------------------|
Gb|-----10--------------|
Db|------x--------------|
Ab|--0-0-8-10-8--0-1-1--|
Db|--0-0---10-8--0-1-1--|
                pm
Chorus: 01:38 both guitars
Eb|-----------------------------------|
Bb|-----------------------------------|
Gb|-----------------------------------|
Db|--0-0-0-0-0-0-0-0-8-8-8-8-8-8-8-8--|
Ab|--0-0-0-0-0-0-0-0-8-8-8-8-8-8-8-8--|
Db|--0-0-0-0-0-0-0-0-8-8-8-8-8-8-8-8--|

Eb|-----------------------------------|
Bb|-----------------------------------|
Gb|------------------5-5-5-5-5-5-5-5--|
Db|--3-3-3-3-3-3-3-3-5-5-5-5-5-5-5-5--|
Ab|--3-3-3-3-3-3-3-3-3-3-3-3-3-3-3-3--|
Db|--3-3-3-3-3-3-3-3------------------|

Eb|-----------------------------------|
Bb|-----------------------------------|
Gb|-----------------------------------|
Db|--0-0-0-0-0-0-0-0-8-8-8-8-8-8-8-8--|
Ab|--0-0-0-0-0-0-0-0-8-8-8-8-8-8-8-8--|
Db|--0-0-0-0-0-0-0-0-8-8-8-8-8-8-8-8--|

Eb|--------------------------------------|
Bb|--------------------------------------|
Gb|--------------------------------------|
Db|--3-3-3-3-3-3-3-3-1--1--1-------------|
Ab|--3-3-3-3-3-3-3-3-1--1--1--0-1-0-3-1--|
Db|--3-3-3-3-3-3-3-3-1--1--1--0-1-0-3-1--|

Bridge: 02:01 guitar 1 (palm muted)
Eb|-------------------------------------|
Bb|-------------------------------------|
Gb|-------------------------------------|
Db|-------------------------------------|
Ab|--------8-0---------------5-0--------|
Db|--0-0-0-----10-8-8--0-0-0-----8-7-7--|

Eb|-------------------------------------|
Bb|-------------------------------------|
Gb|-------------------------------------|
Db|-------------------------------------|
Ab|--------8-0---------------5-0--------|
Db|--0-0-0-----10-8-8--0-0-0-----8-7-8--|

Eb|-------------------------------------|
Bb|-------------------------------------|
Gb|-------------------------------------|
Db|-------------------------------------|
Ab|--------8-0---------------5-0--------|
Db|--0-0-0-----10-8-8--0-0-0-----8-7-7--|
               
Eb|----------------------|
Bb|----------------------|
Gb|----------------------|
Db|----------------------|
Ab|--------8-0-----------|
Db|--0-0-0-----10-8-8-0--|

Bridge continued: 02:13 both guitars
Eb|---------------|
Bb|---------------|
Gb|---------------|
Db|--0-0-1-3-1-0--|
Ab|--0-0-1-3-1-0--|
Db|--0-0-1-3-1-0--|x4

Bridge continued: 02:25
Eb|-----------------------------------|
Bb|-----------------------------------|
Gb|-----------------------------------|
Db|--1-1-1-1-1-1-1-1-5-5-5-5-5-5-5-5--|
Ab|--1-1-1-1-1-1-1-1-5-5-5-5-5-5-5-5--|
Db|--1-1-1-1-1-1-1-1-5-5-5-5-5-5-5-5--|

Eb|-------------------------------------|
Bb|-------------------------------------|
Gb|-------------------------------------|
Db|--3-3-3-3-3-3-3-3-1-1-1-1------------|
Ab|--3-3-3-3-3-3-3-3-1-1-1-1-0-0-1-3-1--|
Db|--3-3-3-3-3-3-3-3-1-1-1-1-0-0-1-3-1--|

Chorus: 02:36 both guitars
Eb|-----------------------------------|
Bb|-----------------------------------|
Gb|-----------------------------------|
Db|--0-0-0-0-0-0-0-0-8-8-8-8-8-8-8-8--|
Ab|--0-0-0-0-0-0-0-0-8-8-8-8-8-8-8-8--|
Db|--0-0-0-0-0-0-0-0-8-8-8-8-8-8-8-8--|

Eb|-----------------------------------|
Bb|-----------------------------------|
Gb|------------------5-5-5-5-5-5-5-5--|
Db|--3-3-3-3-3-3-3-3-5-5-5-5-5-5-5-5--|
Ab|--3-3-3-3-3-3-3-3-3-3-3-3-3-3-3-3--|
Db|--3-3-3-3-3-3-3-3------------------|

Eb|-----------------------------------|
Bb|-----------------------------------|
Gb|-----------------------------------|
Db|--0-0-0-0-0-0-0-0-8-8-8-8-8-8-8-8--|
Ab|--0-0-0-0-0-0-0-0-8-8-8-8-8-8-8-8--|
Db|--0-0-0-0-0-0-0-0-8-8-8-8-8-8-8-8--|

Eb|--------------------------------------|
Bb|--------------------------------------|
Gb|--------------------------------------|
Db|--3-3-3-3-3-3-3-3-1--1--1-------------|
Ab|--3-3-3-3-3-3-3-3-1--1--1--0-1-0-3-1--|
Db|--3-3-3-3-3-3-3-3-1--1--1--0-1-0-3-1--|x2

Outro: 03:22 both guitars
Eb|-------------------------|
Bb|-------------------------|
Gb|-----10-----------7------|
Db|------x-----------x------|
Ab|--0-0-8-10-8--0-0-5-8-7--|
Db|--0-0---10-8--0-0---8-7--|

Eb|---------------------------|
Bb|---------------------------|
Gb|-----10-----------7--------|
Db|------x-----------x--------|
Ab|--0-0-8-10-8--0-0-5-8-7-8--|
Db|--0-0---10-8--0-0---8-7-8--|

Eb|-------------------------|
Bb|-------------------------|
Gb|-----10-----------7------|
Db|------x-----------x------|
Ab|--0-0-8-10-8--0-0-5-8-7--|
Db|--0-0---10-8--0-0---8-7--|

Eb|---------------------|
Bb|---------------------|
Gb|-----10--------------|
Db|------x--------------|
Ab|--0-0-8-10-8--0-1-1--|
Db|--0-0---10-8--0-1-1--|
                pm

Finished!
Tap to rate this tab
 
# A B C D E F G H I J K L M N O P Q R S T U V W X Y Z