Song name
# A B C D E F G H I J K L M N O P Q R S T U V W X Y Z

Red - Never Be The Same tab

e:-----4--------4---------4-------6--------:
B:-------6--------6---------6-------7-6----:
G:----6--------6---------6-------6---------:
D:-----------------------------------------:
A:-4--------1------------------------------:
C:-------------------1---------3-----------:Yes C (I detuned my string really low....I think its C
not sure though....its around there......)


e:-----4--------4---------4-------6--------:
B:-------6--------6---------6---4---7-6----:
G:----6--------6---------6-------6---------:
D:-----------------------------------------:
A:-4--------1--------3---------3-----------:
C:-----------------------------------------:     

I'm pretty sure this isn't right....its not easy to play...I know the bass notes 
are right though....I
thought i would put this up to help start off someone else who actualy knows how 
to play guitar to make a
real tab....PLEASE SOMEONE ELSE TAB THIS!!!!!
Tap to rate this tab
 
# A B C D E F G H I J K L M N O P Q R S T U V W X Y Z