Song name
# A B C D E F G H I J K L M N O P Q R S T U V W X Y Z

Red - Confession Whats In My Head tab

RED
Confession (What’s In My Head)
Tabbed by U B the band
Tuning Bb F Bb Eb G C

Legend
h-hammer on

Intro: Guitar 1 (Distorted with fuzz)
 C|---------------------------------------------------------------------------|
 G|---------------------------------------------------------------------------|
Eb|---------------------------------------------------------------------------|
Bb|---------------------------------------------------------------------------|
 F|---------------------------------------------------------------------------|
Bb|--2--0--2--3--3--3---2--0--2--3--2--0---2--0--2--3--3--3---2--0--2--3--2--0|

Intro: Guitar 1 (Distorted with fuzz)
 C|---------------------------------------------------------------------------|
 G|---------------------------------------------------------------------------|
Eb|---------------------------------------------------------------------------|
Bb|---------------------------------------------------------------------------|
 F|---------------------------------------------------------------------------|
Bb|--2--0--2--3--3--3---2--0--2--3--2--0---2--0--2--3--3--3---2---------------|

Intro: Guitars 1 & 2 (Distorted) BOTH GUITARS PLAY 2 TIMES
 C|---------------------------------------------------------------------------|
 G|---------------------------------------------------------------------------|
Eb|---------------------------------------------------------------------------|
Bb|--2--0--2--3--3--3---2--0--2--3--2--0---2--0--2--3--3--3---2--0--2--3--2--0|
 F|--2--0--2--3--3--3---2--0--2--3--2--0---2--0--2--3--3--3---2--0--2--3--2--0|
Bb|--2--0--2--3--3--3---2--0--2--3--2--0---2--0--2--3--3--3---2--0--2--3--2--0|

Intro: Guitars 1 & 2 (Distorted)
 C|-----------------------------------------------0-----------------0--0------|
 G|-----------------------------------------------5-----------------5--5------|
Eb|-----------------------------------------------4-----------------4--4------|
Bb|--2--0--2--3--3--3---2--0--2--3--2--0---3--3--------------3--3-------------|
 F|--2--0--2--3--3--3---2--0--2--3--2--0---3--3--------------3--3-------------|
Bb|--2--0--2--3--3--3---2--0--2--3--2--0---3--3--------------3--3-------------|

Verse 1: Guitar 1 (Distorted with fuzz) PLAY 2 TIMES
 C|---------------------------------------------------------------------------|
 G|---------------------------------------------------------------------------|
Eb|---------------------------------------------------------------------------|
Bb|---------------------------------------------------------------------------|
 F|---------------------------------------------------------------------------|
Bb|--0--2--2--2--------0--2--2--2--------0--0h2--2--2--------3-3-3-3--5-5-5-5-|

Verse 1: Guitars 1 & 2 (Distorted) PLAY 2 TIMES
 C|---------------------------------------------------------------------------|
 G|---------------------------------------------------------------------------|
Eb|---------------------------------------------------------------------------|
Bb|--0--2--2--2--------0--2--2--2--------0--0h2--2--2--------3-3-3-3--5-5-5-5-|
 F|--0--2--2--2--------0--2--2--2--------0--0h2--2--2--------3-3-3-3--5-5-5-5-|
Bb|--0--2--2--2--------0--2--2--2--------0--0h2--2--2--------3-3-3-3--5-5-5-5-|

Chorus: Guitars 1 & 2 (Distorted)
 C|---------------------------------------------------------------------------|
 G|---------------------------------------------------------------------------|
Eb|--------------------------5-5-5-5-5-5-5-5-5-5-5-5--------------------------|
Bb|--2-2-2-2-2-2-2-2-2-2-2-2-5-5-5-5-5-5-5-5-5-5-5-5-0-0-0-0-0-0-0-0-0-0-0-0--|
 F|--2-2-2-2-2-2-2-2-2-2-2-2-3-3-3-3-3-3-3-3-3-3-3-3-0-0-0-0-0-0-0-0-0-0-0-0--|
Bb|--2-2-2-2-2-2-2-2-2-2-2-2-------------------------0-0-0-0-0-0-0-0-0-0-0-0--|

Chorus: Guitars 1 & 2 (Distorted)
 C|---------------------------------------------------------------------------|
 G|---------------------------------------------------------------------------|
Eb|--5-5-5-5-5-5-4-4-4-4-4-4-------------------------5-5-5-5-5-5-5-5-5-5-5-5--|
Bb|--5-5-5-5-5-5-4-4-4-4-4-4-2-2-2-2-2-2-2-2-2-2-2-2-5-5-5-5-5-5-5-5-5-5-5-5--|
 F|--3-3-3-3-3-3-2-2-2-2-2-2-2-2-2-2-2-2-2-2-2-2-2-2-3-3-3-3-3-3-3-3-3-3-3-3--|
Bb|--------------------------2-2-2-2-2-2-2-2-2-2-2-2--------------------------|

Chorus: Guitars 1 & 2 (Distorted)
 C|---------------------------------------------------------------------------|
 G|---------------------------------------------------------------------------|
Eb|---------------------------------------------------------------------------|
Bb|--0-0-0-0-0-0-0-0-0-0-0-0-0-0-0-0-0-0-0-0-0-0-0-0--------------------------|
 F|--0-0-0-0-0-0-0-0-0-0-0-0-0-0-0-0-0-0-0-0-0-0-0-0--------------------------|
Bb|--0-0-0-0-0-0-0-0-0-0-0-0-0-0-0-0-0-0-0-0-0-0-0-0--------------------------|

Post Chorus: Guitars 1 & 2 (Distorted) BOTH GUITARS PLAY 1 TIME
 C|---------------------------------------------------------------------------|
 G|---------------------------------------------------------------------------|
Eb|---------------------------------------------------------------------------|
Bb|--2--0--2--3--3--3---2--0--2--3--2--0---2--0--2--3--3--3---2--0--2--3--2--0|
 F|--2--0--2--3--3--3---2--0--2--3--2--0---2--0--2--3--3--3---2--0--2--3--2--0|
Bb|--2--0--2--3--3--3---2--0--2--3--2--0---2--0--2--3--3--3---2--0--2--3--2--0|

Post Chorus: Guitars 1 & 2 (Distorted)
 C|-----------------------------------------------0-----------------0--0------|
 G|-----------------------------------------------5-----------------5--5------|
Eb|-----------------------------------------------4-----------------4--4------|
Bb|--2--0--2--3--3--3---2--0--2--3--2--0---3--3--------------3--3-------------|
 F|--2--0--2--3--3--3---2--0--2--3--2--0---3--3--------------3--3-------------|
Bb|--2--0--2--3--3--3---2--0--2--3--2--0---3--3--------------3--3-------------|

Verse 2: Guitars 1 & 2 (Distorted) PLAY 2 TIMES
 C|---------------------------------------------------------------------------|
 G|---------------------------------------------------------------------------|
Eb|---------------------------------------------------------------------------|
Bb|--0--2--2--2--------0--2--2--2--------0--0h2--2--2--------3-3-3-3--5-5-5-5-|
 F|--0--2--2--2--------0--2--2--2--------0--0h2--2--2--------3-3-3-3--5-5-5-5-|
Bb|--0--2--2--2--------0--2--2--2--------0--0h2--2--2--------3-3-3-3--5-5-5-5-|

Chorus: Guitars 1 & 2 (Distorted)
 C|---------------------------------------------------------------------------|
 G|---------------------------------------------------------------------------|
Eb|--------------------------5-5-5-5-5-5-5-5-5-5-5-5--------------------------|
Bb|--2-2-2-2-2-2-2-2-2-2-2-2-5-5-5-5-5-5-5-5-5-5-5-5-0-0-0-0-0-0-0-0-0-0-0-0--|
 F|--2-2-2-2-2-2-2-2-2-2-2-2-3-3-3-3-3-3-3-3-3-3-3-3-0-0-0-0-0-0-0-0-0-0-0-0--|
Bb|--2-2-2-2-2-2-2-2-2-2-2-2-------------------------0-0-0-0-0-0-0-0-0-0-0-0--|

Chorus: Guitars 1 & 2 (Distorted)
 C|---------------------------------------------------------------------------|
 G|---------------------------------------------------------------------------|
Eb|--5-5-5-5-5-5-4-4-4-4-4-4-------------------------5-5-5-5-5-5-5-5-5-5-5-5--|
Bb|--5-5-5-5-5-5-4-4-4-4-4-4-2-2-2-2-2-2-2-2-2-2-2-2-5-5-5-5-5-5-5-5-5-5-5-5--|
 F|--3-3-3-3-3-3-2-2-2-2-2-2-2-2-2-2-2-2-2-2-2-2-2-2-3-3-3-3-3-3-3-3-3-3-3-3--|
Bb|--------------------------2-2-2-2-2-2-2-2-2-2-2-2--------------------------|

Chorus: Guitars 1 & 2 (Distorted)
 C|---------------------------------------------------------------------------|
 G|---------------------------------------------------------------------------|
Eb|---------------------------------------------------------------------------|
Bb|--0-0-0-0-0-0-0-0-0-0-0-0-0-0-0-0-0-0-0-0-0-0-0-0--------------------------|
 F|--0-0-0-0-0-0-0-0-0-0-0-0-0-0-0-0-0-0-0-0-0-0-0-0--------------------------|
Bb|--0-0-0-0-0-0-0-0-0-0-0-0-0-0-0-0-0-0-0-0-0-0-0-0--------------------------|

Bridge: Guitars 1 & 2 (Silent)
 C|---------------------------------------------------------------------------|
 G|---------------------------------------------------------------------------|
Eb|---------------------------------------------------------------------------|
Bb|---------------------------------------------------------------------------|
 F|---------------------------------------------------------------------------|
Bb|---------------------------------------------------------------------------|

Bridge: Guitars 1 & 2 (Distorted)
 C|---------------------------------------------------------------------------|
 G|---------------------------------------------------------------------------|
Eb|--5-5-5-5-5-5-5-5-5-5-5-5--------------------------------------------------|
Bb|--5-5-5-5-5-5-5-5-5-5-5-5-5-5-5-5-5-5-5-5-5-5-5-5-0-0-0-0-0-0-0-0-0-0-0-0--|
 F|--3-3-3-3-3-3-3-3-3-3-3-3-5-5-5-5-5-5-5-5-5-5-5-5-0-0-0-0-0-0-0-0-0-0-0-0--|
Bb|--------------------------5-5-5-5-5-5-5-5-5-5-5-5-0-0-0-0-0-0-0-0-0-0-0-0--|

Bridge: Guitars 1 & 2 (Distorted)
 C|---------------------------------------------------------------------------|
 G|---------------------------------------------------------------------------|
Eb|--------------------------5-5-5-5-5-5-5-5-5-5-5-5--------------------------|
Bb|--0-0-0-0-0-0-0-0-0-0-0-0-5-5-5-5-5-5-5-5-5-5-5-5-5-5-5-5-5-5-5-5-5-5-5-5--|
 F|--0-0-0-0-0-0-0-0-0-0-0-0-3-3-3-3-3-3-3-3-3-3-3-3-5-5-5-5-5-5-5-5-5-5-5-5--|
Bb|--0-0-0-0-0-0-0-0-0-0-0-0-------------------------5-5-5-5-5-5-5-5-5-5-5-5--|

Bridge: Guitars 1 & 2 (Distorted)
 C|---------------------------------------------------------------------------|
 G|---------------------------------------------------------------------------|
Eb|---------------------------------------------------------------------------|
Bb|--0-0-0-0-0-0-0-0-0-0-0-0-0-0-0-0-0-0-0-0-0-0-0-0--------------------------|
 F|--0-0-0-0-0-0-0-0-0-0-0-0-0-0-0-0-0-0-0-0-0-0-0-0--------------------------|
Bb|--0-0-0-0-0-0-0-0-0-0-0-0-0-0-0-0-0-0-0-0-0-0-0-0--------------------------|

Outro: Guitars 1 & 2 (Distorted)
 C|---------------------------------------------------------------------------|
 G|---------------------------------------------------------------------------|
Eb|---------------------------------------------------------------------------|
Bb|--2--0--2--3--3--3---2--0--2--3--2--0--------------------------------------|
 F|--2--0--2--3--3--3---2--0--2--3--2--0--------------------------------------|
Bb|--2--0--2--3--3--3---2--0--2--3--2--0--------------------------------------|

Outro: Guitars 1 & 2 (Distorted)
 C|---------------------------------------------------------------------------|
 G|---------------------------------------------------------------------------|
Eb|---------------------------------------------------------------------------|
Bb|--2--0--2--3--3--3---2--0--2--3--2--0--------------------------------------|
 F|--2--0--2--3--3--3---2--0--2--3--2--0--------------------------------------|
Bb|--2--0--2--3--3--3---2--0--2--3--2--0--------------------------------------|

Outro: Guitars 1 & 2 (Distorted)
 C|---------------------------------------------------------------------------|
 G|---------------------------------------------------------------------------|
Eb|---------------------------------------------------------------------------|
Bb|--2--0--2--3--3--3---2--0--2--3--2--0---2--0--2--3--3--3---2--0--2--3--2--0|
 F|--2--0--2--3--3--3---2--0--2--3--2--0---2--0--2--3--3--3---2--0--2--3--2--0|
Bb|--2--0--2--3--3--3---2--0--2--3--2--0---2--0--2--3--3--3---2--0--2--3--2--0|

Outro: Guitars 1 & 2 (Distorted)
 C|---------------------------------------------------------------------------|
 G|---------------------------------------------------------------------------|
Eb|---------------------------------------------------------------------------|
Bb|--2--0--2--3--3--3---2--0--2--3--2--0---2--0--2--3--3--3---2--0--2--3--2--0|
 F|--2--0--2--3--3--3---2--0--2--3--2--0---2--0--2--3--3--3---2--0--2--3--2--0|
Bb|--2--0--2--3--3--3---2--0--2--3--2--0---2--0--2--3--3--3---2--0--2--3--2--0|

Outro: Guitars 1 & 2 (Distorted)
 C|---------------------------------------------------------------------------|
 G|---------------------------------------------------------------------------|
Eb|---------------------------------------------------------------------------|
Bb|--2------------------2------------------2----------------------------------|
 F|--2------------------2------------------2----------------------------------|
Bb|--2------------------2------------------2----------------------------------|

Finished!
Tap to rate this tab
# A B C D E F G H I J K L M N O P Q R S T U V W X Y Z