Song name
# A B C D E F G H I J K L M N O P Q R S T U V W X Y Z

Red - Never Be The Same tab

RED
Never Be The Same
Tabbed by U B the band
Tuning Bb F Bb Eb G C

Legend
/-slide up

Intro: Guitar 1 (Acoustic)
 C|---------------------------------------------------------------------------|
 G|--------1-----------------1-----------------1-----------------3------------|
Eb|-----------2-----------2-----2-----------------2-----------0------2--------|
Bb|-----3---------3----0------------0-------3---------3-----------------------|
 F|--1------------------------------------------------------------------------|
Bb|--------------------------------------3-----------------5------------------|

Intro: Guitar 1 (Acoustic)
 C|---------------------------------------------------------------------------|
 G|--------1-----------------1-----------------1-------3----/-5--5------------|
Eb|-----------2-----------2-----2-----------2---------------------------------|
Bb|-----3---------3----0------------0-----------------------------------------|
 F|--1-----------------------------------3---------3--------------------------|
Bb|---------------------------------------------------------------------------|

Verse 1: Guitar 1 (Acoustic) PLAY ENTIRE VERSE 2 TIMES
 C|---------------------------------------------------------------------------|
 G|--------1-----------------1-----------------1-----------------3------------|
Eb|-----------2-----------2-----2-----------------2-----------0------2--------|
Bb|-----3---------3----0------------0-------3---------3-----------------------|
 F|--1------------------------------------------------------------------------|
Bb|--------------------------------------3-----------------5------------------|

Verse 1: Guitar 1 (Acoustic)
 C|---------------------------------------------------------------------------|
 G|--------1-----------------1-----------------1-------3----/-5--5------------|
Eb|-----------2-----------2-----2-----------2---------------------------------|
Bb|-----3---------3----0------------0-----------------------------------------|
 F|--1-----------------------------------3---------3--------------------------|
Bb|---------------------------------------------------------------------------|

Chorus: Guitar 2 (Distorted) PLAY 2 TIMES
 C|---------------------------------------------------------------------------|
 G|---------------------------------------------------------------------------|
Eb|--3-3-3-3--3-3-3-3--------------------------------------5-5-5-5--5-5-5-5---|
Bb|--3-3-3-3--3-3-3-3--5-5-5-5--5-5-5-5--3-3-3-3--3-3-3-3--5-5-5-5--5-5-5-5---|
 F|--1-1-1-1--1-1-1-1--5-5-5-5--5-5-5-5--3-3-3-3--3-3-3-3--3-3-3-3--3-3-3-3---|
Bb|--------------------5-5-5-5--5-5-5-5--3-3-3-3--3-3-3-3---------------------|

Verse 2: Guitar 1 (Acoustic) PLAY ENTIRE VERSE 2 TIMES
 C|---------------------------------------------------------------------------|
 G|--------1-----------------1-----------------1-----------------3------------|
Eb|-----------2-----------2-----2-----------------2-----------0------2--------|
Bb|-----3---------3----0------------0-------3---------3-----------------------|
 F|--1------------------------------------------------------------------------|
Bb|--------------------------------------3-----------------5------------------|

Verse 2: Guitar 1 (Acoustic)
 C|---------------------------------------------------------------------------|
 G|--------1-----------------1-----------------1-------3----/-5--5------------|
Eb|-----------2-----------2-----2-----------2---------------------------------|
Bb|-----3---------3----0------------0-----------------------------------------|
 F|--1-----------------------------------3---------3--------------------------|
Bb|---------------------------------------------------------------------------|

Chorus: Guitar 2 (Distorted) PLAY 2 TIMES
 C|---------------------------------------------------------------------------|
 G|---------------------------------------------------------------------------|
Eb|--3-3-3-3--3-3-3-3--------------------------------------5-5-5-5--5-5-5-5---|
Bb|--3-3-3-3--3-3-3-3--5-5-5-5--5-5-5-5--3-3-3-3--3-3-3-3--5-5-5-5--5-5-5-5---|
 F|--1-1-1-1--1-1-1-1--5-5-5-5--5-5-5-5--3-3-3-3--3-3-3-3--3-3-3-3--3-3-3-3---|
Bb|--------------------5-5-5-5--5-5-5-5--3-3-3-3--3-3-3-3---------------------|

Bridge: Guitar 2 (Distorted)
 C|---------------------------------------------------------------------------|
 G|---------------------------------------------------------------------------|
Eb|---------------------------------------------------------------------------|
Bb|--0-0-0---0---0-0-0---0---3-3-3---3---3-3-3---3---5-5-5---5---5-5-5---5----|
 F|--0-0-0---0---0-0-0---0---3-3-3---3---3-3-3---3---5-5-5---5---5-5-5---5----|
Bb|--0-0-0---0---0-0-0---0---3-3-3---3---3-3-3---3---5-5-5---5---5-5-5---5----|

Bridge: Guitar 2 (Distorted)
 C|---------------------------------------------------------------------------|
 G|---------------------------------------------------------------------------|
Eb|---------------------------------------------------------------------------|
Bb|--8-----8-----8-----8-----8-----10-----10-----10-----10-----7-----7--------|
 F|--8-----8-----8-----8-----8-----10-----10-----10-----10-----7-----7--------|
Bb|--8-----8-----8-----8-----8-----10-----10-----10-----10-----7-----7--------|

Bridge: Guitar 2 (Distorted)
 C|---------------------------------------------------------------------------|
 G|---------------------------------------------------------------------------|
Eb|---------------------------------------------------------------------------|
Bb|--0-0-0---0---0-0-0---2---3-3-3---3---3-3-3---3---5-5-5---5---5-5-5---5----|
 F|--0-0-0---0---0-0-0---2---3-3-3---3---3-3-3---3---5-5-5---5---5-5-5---5----|
Bb|--0-0-0---0---0-0-0---2---3-3-3---3---3-3-3---3---5-5-5---5---5-5-5---5----|

Bridge: Guitar 2 (Distorted)
 C|---------------------------------------------------------------------------|
 G|---------------------------------------------------------------------------|
Eb|---------------------------------------------------------------------------|
Bb|--8-----8-----8-----8-----8-----10-----10-----10-----10-----7-----7--------|
 F|--8-----8-----8-----8-----8-----10-----10-----10-----10-----7-----7--------|
Bb|--8-----8-----8-----8-----8-----10-----10-----10-----10-----7-----7--------|

Bridge: Guitar 2 (Distorted)
 C|---------------------------------------------------------------------------|
 G|---------------------------------------------------------------------------|
Eb|---------------------------------------------------------------------------|
Bb|--0-0-0-0--0-0-0-0--3-3-3-3--3-3-3-3--5-5-5-5--5-5-5-5--8-8-8-8--1---7-----|
 F|--0-0-0-0--0-0-0-0--3-3-3-3--3-3-3-3--5-5-5-5--5-5-5-5--8-8-8-8--1---7-----|
Bb|--0-0-0-0--0-0-0-0--3-3-3-3--3-3-3-3--5-5-5-5--5-5-5-5--8-8-8-8--1---7-----|

Post Bridge: Guitar 1 (Acoustic) PLAY ENTIRE VERSE 2 TIMES
 C|---------------------------------------------------------------------------|
 G|--------1-----------------1-----------------1-----------------3------------|
Eb|-----------2-----------2-----2-----------------2-----------0------2--------|
Bb|-----3---------3----0------------0-------3---------3-----------------------|
 F|--1------------------------------------------------------------------------|
Bb|--------------------------------------3-----------------5------------------|

Post Bridge: Guitar 1 (Acoustic)
 C|---------------------------------------------------------------------------|
 G|--------1-----------------1-----------------1-------3----/-5--5------------|
Eb|-----------2-----------2-----2-----------2---------------------------------|
Bb|-----3---------3----0------------0-----------------------------------------|
 F|--1-----------------------------------3---------3--------------------------|
Bb|---------------------------------------------------------------------------|

Chorus: Guitar 2 (Distorted) PLAY 4 TIMES
 C|---------------------------------------------------------------------------|
 G|---------------------------------------------------------------------------|
Eb|--3-3-3-3--3-3-3-3--------------------------------------5-5-5-5--5-5-5-5---|
Bb|--3-3-3-3--3-3-3-3--5-5-5-5--5-5-5-5--3-3-3-3--3-3-3-3--5-5-5-5--5-5-5-5---|
 F|--1-1-1-1--1-1-1-1--5-5-5-5--5-5-5-5--3-3-3-3--3-3-3-3--3-3-3-3--3-3-3-3---|
Bb|--------------------5-5-5-5--5-5-5-5--3-3-3-3--3-3-3-3---------------------|

Outro: Guitar 1 (Acoustic) PLAY ENTIRE VERSE 2 TIMES
 C|---------------------------------------------------------------------------|
 G|--------1-----------------1-----------------1-----------------3------------|
Eb|-----------2-----------2-----2-----------------2-----------0------2--------|
Bb|-----3---------3----0------------0-------3---------3-----------------------|
 F|--1------------------------------------------------------------------------|
Bb|--------------------------------------3-----------------5------------------|

Outro: Guitar 1 (Acoustic)
 C|---------------------------------------------------------------------------|
 G|--------1-----------------1-----------------1------------------------------|
Eb|-----------2-----------2-----2-----------2----------5----------------------|
Bb|-----3---------3----0------------0------------------5----------------------|
 F|--1-----------------------------------3---------3---3----------------------|
Bb|---------------------------------------------------------------------------|

Finished!
Tap to rate this tab
# A B C D E F G H I J K L M N O P Q R S T U V W X Y Z