Song name
# A B C D E F G H I J K L M N O P Q R S T U V W X Y Z

Red - Start Again tab

Red
Start Again
Tabbed by U B the band & Angel Baby
Tuning Bb F Bb Eb G C

There is a guitar in the background of the verses and Iíll have it up
as soon as I can figure out EXACTLY what is being played. Thanks.

Legend

Intro: Guitar 1 (Low Distortion) PLAY 1 TIME
 C|-------------------------------------------------------------------|
 G|-------------------------------------------------------------------|
Eb|-------------------------------------------------------------------|
Bb|--4----------------7----------------9----------------2-------------|
 F|--0----------------4----------------7----------------2-------------|
Bb|--0----------------4----------------7----------------2-------------|

Intro: Guitar 1 & 2 (Distorted) PLAY 2 TIMES
 C|-------------------------------------------------------------------|
 G|-------------------------------------------------------------------|
Eb|-------------------------------------------------------------------|
Bb|--4----------------7----------------9----------------2-------------|
 F|--0----------------4----------------7----------------2-------------|
Bb|--0----------------4----------------7----------------2-------------|

Verse 1: (CLEAN Transcribed from Piano) PLAY ENTIRE VERSE 4 TIMES
 C|--14------14------14------14------14------14------14------14-------|
 G|------14------14------14------14------14------14------14------14---|
Eb|-------------------------------------------------------------------|
Bb|-------------------------------------------------------------------|
 F|-------------------------------------------------------------------|
Bb|-------------------------------------------------------------------|

Verse 1: (CLEAN Transcribed from Piano)
 C|--12------12------12------12------12------12------12------12-------|
 G|------14------14------14------14------14------14------14------14---|
Eb|-------------------------------------------------------------------|
Bb|-------------------------------------------------------------------|
 F|-------------------------------------------------------------------|
Bb|-------------------------------------------------------------------|

Chorus: Guitar 1 & 2 (Distorted) PLAY 2 TIMES
 C|-------------------------------------------------------------------|
 G|-------------------------------------------------------------------|
Eb|-------------------------------------------------------------------|
Bb|--4----------------7----------------9----------------2-------------|
 F|--0----------------4----------------7----------------2-------------|
Bb|--0----------------4----------------7----------------2-------------|

Verse 2: (CLEAN Transcribed from Piano) PLAY ENTIRE VERSE 2 TIMES
 C|--14------14------14------14------14------14------14------14-------|
 G|------14------14------14------14------14------14------14------14---|
Eb|-------------------------------------------------------------------|
Bb|-------------------------------------------------------------------|
 F|-------------------------------------------------------------------|
Bb|-------------------------------------------------------------------|

Verse 2: (CLEAN Transcribed from Piano)
 C|--12------12------12------12------12------12------12------12-------|
 G|------14------14------14------14------14------14------14------14---|
Eb|-------------------------------------------------------------------|
Bb|-------------------------------------------------------------------|
 F|-------------------------------------------------------------------|
Bb|-------------------------------------------------------------------|

Chorus: Guitar 1 & 2 (Distorted) PLAY 2 TIMES
 C|-------------------------------------------------------------------|
 G|-------------------------------------------------------------------|
Eb|-------------------------------------------------------------------|
Bb|--4----------------7----------------9----------------2-------------|
 F|--0----------------4----------------7----------------2-------------|
Bb|--0----------------4----------------7----------------2-------------|

Bridge 1: Guitar 1 & 2 (distorted) PLAY 2 TIMES
 C|-------------------------------------------------------------------|
 G|--------------------------------------------------3-3-3-3-3-3-3-3--|
Eb|--------------------------------------------------2-2-2-2-2-2-2-2--|
Bb|--4-4-4-4-4-4-4-4-2-2-2-2-2-2-2-2-6-6-6-6-6-6-6-6-0-0-0-0-0-0-0-0--|
 F|--4-4-4-4-4-4-4-4-2-2-2-2-2-2-2-2-4-4-4-4-4-4-4-4-0-0-0-0-0-0-0-0--|
Bb|--4-4-4-4-4-4-4-4-2-2-2-2-2-2-2-2-----------------0-0-0-0-0-0-0-0--|

Bridge 2: Guitar 1 & 2 (distorted) PLAY 1 TIME
 C|-------------------------------------------------------------------|
 G|-------------------------------------------------------------------|
Eb|-------------------------------------------------------------------|
Bb|--4------6----7----2------6----7----6------7----6----4-------------|
 F|--4------6----7----2------6----7----4------7----6----0-------------|
Bb|--4------6----7----2------6----7-----------7----6----0-------------|

Chorus: Guitar 1 & 2  (distorted) PLAY 1 TIME
 C|-------------------------------------------------------------------|
 G|-------------------------------------------------------------------|
Eb|-------------------------------------------------------------------|
Bb|------------------------------------9----------------2-------------|
 F|------------------------------------7----------------2-------------|
Bb|------------------------------------7----------------2-------------|

Chorus: Guitar 1 & 2 (distorted) PLAY 3 TIMES
 C|-------------------------------------------------------------------|
 G|-------------------------------------------------------------------|
Eb|-------------------------------------------------------------------|
Bb|--4----------------7----------------9----------------2-------------|
 F|--0----------------4----------------7----------------2-------------|
Bb|--0----------------4----------------7----------------2-------------|

Outro: Guitar 1 & 2 (distorted) PLAY 1 TIME
 C|-------------------------------------------------------------------|
 G|-------------------------------------------------------------------|
Eb|-------------------------------------------------------------------|
Bb|--4----------------------------------------------------------------|
 F|--4----------------------------------------------------------------|
Bb|--4----------------------------------------------------------------|

Finished
Tap to rate this tab
# A B C D E F G H I J K L M N O P Q R S T U V W X Y Z