Red - Gave It All Away tab

--------------------------------------------------------------------
                        GAVE IT ALL AWAY - Red
--------------------------------------------------------------------

Tuning: Drop C (CGCFAD)


INTRO---

Guitar 1 (Play 2x)

d|----------------------------------|--------------------------------|
A|----------------------------------|--------------------------------|
F|----------------------------------|--------------------------------|
C|----------------------------------|--------------------------------|
G|----------------------------------|--------------------------------|
C|--0-0-7-7-5-5-0-0-8-8-7-7-5-5-7-0-|--0-7-7-5-5-0-0-8-8-7-7-5-5-7-0-|

d|----------------------------------|-------------------------------|
A|----------------------------------|-------------------------------|
F|----------------------------------|-------------------------------|
C|----------------------------------|-------------------------------|
G|----------------------------------|------------0-3-3-3-1-1-1------|
C|--0-7-7-5-5-0-0-8-8-7-7-5-5-7-0---|--0-7-7-5-5-0-3-3-3-1-1-1------|

Guitar 2 (Play 2x) 2nd time play single notes 12 and 10, leave out 14s

d|----------------------------------|--------------------------------|
A|----------------------------------|--------------------------------|
F|----------------------------------|--------------------------------|
C|----------------------------------|--------------------------------|
G|----------------------------------|--------------------------------|
C|--0-0-7-7-5-5-0-0-8-8-7-7-5-5-7-0-|--0-7-7-5-5-0-0-8-8-7-7-5-5-7-0-|

d|----------------------------------|--------------------------------|
A|----------------------------------|--------------------------------|
F|----------------------------------|--------------14-14-14-12-12-12-|
C|----------------------------------|--------------X--X--X--X--X--X--|
G|----------------------------------|--------------12-12-12-10-10-10-|
C|--0-7-7-5-5-0-0-8-8-7-7-5-5-7-0---|--0-7-7-5-5-0-------------------|


VERSE 1---

Guitar 1 & 2

d|-----------|
A|-----------|
F|-----------|
C|-----------|
G|-----3/1-0-|
C|-----3/1-0-|


CHORUS---

Guitar 1 & 2

d|--------------------------------------------------------------------|
A|--------------------------------------------------------------------|
F|--------------------------------------------------------------------|
C|--0-0-0-0--10-10-10-10--5-5-7-7--8-8-8-8--0-0-0-0--3-3-3-3--5-5-7-7-|
G|--0-0-0-0--10-10-10-10--5-5-7-7--8-8-8-8--0-0-0-0--3-3-3-3--5-5-7-7-|
C|--0-0-0-0--10-10-10-10--5-5-7-7--8-8-8-8--0-0-0-0--3-3-3-3--5-5-7-7-|


INTRO 1x---

Guitar 1

d|----------------------------------|--------------------------------|
A|----------------------------------|--------------------------------|
F|----------------------------------|--------------------------------|
C|----------------------------------|--------------------------------|
G|----------------------------------|--------------------------------|
C|--0-0-7-7-5-5-0-0-8-8-7-7-5-5-7-0-|--0-7-7-5-5-0-0-8-8-7-7-5-5-7-0-|

d|----------------------------------|-------------------------------|
A|----------------------------------|-------------------------------|
F|----------------------------------|-------------------------------|
C|----------------------------------|-------------------------------|
G|----------------------------------|------------0-3-3-3-1-1-1------|
C|--0-7-7-5-5-0-0-8-8-7-7-5-5-7-0---|--0-7-7-5-5-0-3-3-3-1-1-1------|

Guitar 2

d|----------------------------------|--------------------------------|
A|----------------------------------|--------------------------------|
F|----------------------------------|--------------------------------|
C|----------------------------------|--------------------------------|
G|----------------------------------|--------------------------------|
C|--0-0-7-7-5-5-0-0-8-8-7-7-5-5-7-0-|--0-7-7-5-5-0-0-8-8-7-7-5-5-7-0-|

d|----------------------------------|--------------------------------|
A|----------------------------------|--------------------------------|
F|----------------------------------|--------------------------------|
C|----------------------------------|--------------------------------|
G|----------------------------------|--------------12-12-12-10-10-10-|
C|--0-7-7-5-5-0-0-8-8-7-7-5-5-7-0---|--0-7-7-5-5-0-------------------|


VERSE 2---

Guitar 1 & 2

d|-----------|
A|-----------|
F|-----------|
C|-----------|
G|-----3/1-0-|
C|-----3/1-0-|


CHORUS---

Guitar 1 & 2

d|--------------------------------------------------------------------|
A|--------------------------------------------------------------------|
F|--------------------------------------------------------------------|
C|--0-0-0-0--10-10-10-10--5-5-7-7--8-8-8-8--0-0-0-0--3-3-3-3--5-5-7-7-|
G|--0-0-0-0--10-10-10-10--5-5-7-7--8-8-8-8--0-0-0-0--3-3-3-3--5-5-7-7-|
C|--0-0-0-0--10-10-10-10--5-5-7-7--8-8-8-8--0-0-0-0--3-3-3-3--5-5-7-7-|

d|---------|
A|---------|
F|---------|
C|--7-7-7-7|
G|--7-7-7-7|
C|--7-7-7-7|


BRIDGE---
(Play 2x, let the last 7 ring the 2nd time untill acoustic part begins)

Guitar 1 & 2

d|------------------------------------------------------|
A|--------2222222222---------2222222222---------222222--|
F|------------------------------------------------------|
C|------------------------------------------------------|
G|-1~-1-1------------0-1-1-1------------0-1-1-1---------|
C|-1~-1-1------------0-1-1-1------------0-1-1-1---------|

d|------------------------------------------------------|
A|------------------------------------------------------|
F|------------------------------------------------------|
C|------------------------------------------------------|
G|--7-5-7-8~~--5-5--7-7---------------------------------|
C|--7-5-7-8~~--5-5--7-7---------------------------------|


ACOUSTIC PART---
(Sorry, I couldnt figure out the chords for this)


CHORUS---
(little bit different)

Guitar 1 & 2

Play 3x:
d|-------------------------------------|
A|-------------------------------------|
F|-------------------------------------|
C|--8-8-8-8--0-0-0-0--3-3-3-3--5-5-7-7-|
G|--8-8-8-8--0-0-0-0--3-3-3-3--5-5-7-7-|
C|--8-8-8-8--0-0-0-0--3-3-3-3--5-5-7-7-|


INTRO 1x---

Guitar 1 & 2

d|----------------------------------|--------------------------------|
A|----------------------------------|--------------------------------|
F|----------------------------------|--------------------------------|
C|----------------------------------|--------------------------------|
G|----------------------------------|--------------------------------|
C|--0-0-7-7-5-5-0-0-8-8-7-7-5-5-7-0-|--0-7-7-5-5-0-0-8-8-7-7-5-5-7-0-|

d|----------------------------------|-------------------------------|
A|----------------------------------|-------------------------------|
F|----------------------------------|-------------------------------|
C|----------------------------------|-------------------------------|
G|----------------------------------|------------0-3-3-3-1-1-1------|
C|--0-7-7-5-5-0-0-8-8-7-7-5-5-7-0---|--0-7-7-5-5-0-3-3-3-1-1-1------|


BRIDGE (Play 1x)---

Guitar 1 & 2

d|------------------------------------------------------|
A|--------2222222222---------2222222222---------222222--|
F|------------------------------------------------------|
C|------------------------------------------------------|
G|-1~-1-1------------0-1-1-1------------0-1-1-1---------|
C|-1~-1-1------------0-1-1-1------------0-1-1-1---------|

d|------------------------------------------------------|
A|------------------------------------------------------|
F|------------------------------------------------------|
C|------------------------------------------------------|
G|--7-5-7-8~~--5-5--3--1--------------------------------|
C|--7-5-7-8~~--5-5--3--1--------------------------------|

That's it.
It's 100% correct to me, but i'm not that good of a tabber so i'm not sure.
Theres always the chance that you hear mistakes.
Have fun though!
Tap to rate this tab
 
# A B C D E F G H I J K L M N O P Q R S T U V W X Y Z