Red - Watch You Crawl tab

Red
Watch You Crawl
Tabbed by U B the band
Tuning Bb F Bb Eb G C

Legend
h - hammer on         p - pull off        () - Cresendo        \ - slide down

Intro: Distorted with Fuzz
 C|---------------------------------------------------------------------------|
 G|---------------------------------------------------------------------------|
Eb|---------------------------------------------------------------------------|
Bb|---------------------------------------------------------------------------|
 F|--5--------------3---------------------------------------------------------|
Bb|-------0----3---------0--0--0--0-0----0-0--0----0-0--0-3h6p3p0-------------|

Intro: Distorted with Fuzz
 C|---------------------------------------------------------------------------|
 G|---------------------------------------------------------------------------|
Eb|---------------------------------------------------------------------------|
Bb|-----------------------------------------------------------------(0)-------|
 F|--5---------6----------------------------------------------------(0)-------|
Bb|-------0---------6p5-0h3-0---5h6-5p0-3p0-3h5--5h6-5p0-3p0-3h5----(0)-------|

Intro: Distorted
 C|---------------------------------------------------------------------------|
 G|---------------------------------------------------------------------------|
Eb|--7--------------5---------------------------------------------------------|
Bb|--x--------------x---------------------------------------------------------|
 F|--5----0----3----3----0--0--0--0-0----0-0--0----0-0--0---------------------|
Bb|-------0----3---------0--0--0--0-0----0-0--0----0-0--0-3h6p3p0-------------|

Intro: Distorted
 C|---------------------------------------------------------------------------|
 G|---------------------------------------------------------------------------|
Eb|--7---------8--------------------------------------------------------------|
Bb|--x---------x--------------------------------------------------------------|
 F|--5----0----6--------------------------------------------------------------|
Bb|-------0---------6p5-0h3-0---5h6-5p0-3p0------5h6-5p0-3p0-3h5--------------|

Intro: Distorted
 C|---------------------------------------------------------------------------|
 G|---------------------------------------------------------------------------|
Eb|--7--------------5---------------------------------------------------------|
Bb|--x--------------x---------------------------------------------------------|
 F|--5----0----3----3----0--0--0--0-0----0-0--0----0-0--0---------------------|
Bb|-------0----3---------0--0--0--0-0----0-0--0----0-0--0-3h6p3p0-------------|

Intro: Distorted
 C|---------------------------------------------------------------------------|
 G|---------------------------------------------------------------------------|
Eb|--7---------8--------------------------------------------------------------|
Bb|--x---------x----------------------------------------------------0---------|
 F|--5----0----6----------------------------------------------------0---------|
Bb|-------0---------6p5-0h3-0---5h6-5p0-3p0------5h6-5p0-3p0-3h5----0---------|

Verse 1: Distorted (Palm Muted) Play 2 Times
 C|---------------------------------------------------------------------------|
 G|---------------------------------------------------------------------------|
Eb|---------------------------------------------------------------------------|
Bb|---------------------------------------------------------------------------|
 F|--5-5-5-5-5-5-5-5-5-5-5-5-5-5-5-5-5-5-5-5-5-5-5-5-5-5-5-5-5-5-5-5----------|
Bb|---------------------------------------------------------------------------|

 C|---------------------------------------------------------------------------|
 G|---------------------------------------------------------------------------|
Eb|---------------------------------------------------------------------------|
Bb|---------------------------------------------------------------------------|
 F|--8-8-8-8-8-8-8-8-8-8-8-8-8-8-8-8-3-3-3-3-3-3-3-3-3-3-3-3-3-3-3-3----------|
Bb|---------------------------------------------------------------------------|

Verse 1(Variation): Distorted (Palm Muted) Play 2 Times
 C|---------------------------------------------------------------------------|
 G|---------------------------------------------------------------------------|
Eb|---------------------------------------------------------------------------|
Bb|---------------------------------------------------------------------------|
 F|--5-5-5-5-5-5-5-5-5-5-5-5-5-5-5-5-8-8-8-8-8-8-8-8-8-8-8-8-8-8-8-8----------|
Bb|---------------------------------------------------------------------------|

 C|---------------------------------------------------------------------------|
 G|---------------------------------------------------------------------------|
Eb|---------------------------------------------------------------------------|
Bb|---------------------------------------------------------------------------|
 F|--3-3-3-3-3-3-3-3-3-3-3-3-3-3-3-3-0-0-0-0-0-0-0-0-0-0-0-0-0-0-0-0----------|
Bb|---------------------------------------------------------------------------|

Pre Chorus: Distorted
 C|---------------------------------------------------------------------------|
 G|---------------------------------------------------------------------------|
Eb|---------------------------------------------------------------------------|
Bb|--8--8--8--8-8----10--10--10-10-7----8--8--8--8-8----10--10--10--10---10---|
 F|--8--8--8--8-8----10--10--10-10-7----8--8--8--8-8----10--10--10--10---10---|
Bb|--8--8--8--8-8----10--10--10-10-7----8--8--8--8-8----10--10--10--10---10---|

Chorus: Distorted
 C|---------------------------------------------------------------------------|
 G|---------------------------------------------------------------------------|
Eb|---------------------------------------------------------------------------|
Bb|--8--8--8--8-8-----5--5--5--5-5-----0--0--0--0---0-----0--0--0--0---0------|
 F|--8--8--8--8-8-----5--5--5--5-5-----0--0--0--0---0-----0--0--0--0---0------|
Bb|--8--8--8--8-8-----5--5--5--5-5-----0--0--0--0---0-----0--0--0--0---0------|

Chorus: Distorted
 C|---------------------------------------------------------------------------|
 G|---------------------------------------------------------------------------|
Eb|---------------------------------------------------------------------------|
Bb|--8--8--8--8-8-----5--5--5--5-5-----0--0--0--0---0-----4--4--4--4---4------|
 F|--8--8--8--8-8-----5--5--5--5-5-----0--0--0--0---0-----5--5--5--5---5------|
Bb|--8--8--8--8-8-----5--5--5--5-5-----0--0--0--0---0-----4--4--4--4---4------|

Chorus: Distorted
 C|---------------------------------------------------------------------------|
 G|---------------------------------------------------------------------------|
Eb|---------------------------------------------------------------------------|
Bb|--8--8--8--8-8-----5--5--5--5-5-----0--0--0--0---0-----0--0--0--0---0------|
 F|--8--8--8--8-8-----5--5--5--5-5-----0--0--0--0---0-----0--0--0--0---0------|
Bb|--8--8--8--8-8-----5--5--5--5-5-----0--0--0--0---0-----0--0--0--0---0------|

Chorus: Distorted
 C|---------------------------------------------------------------------------|
 G|---------------------------------------------------------------------------|
Eb|---------------------------------------------------------------------------|
Bb|--8--8--8--8-5-----10--10--10--10-7----------------------------------------|
 F|--8--8--8--8-5-----10--10--10--10-7----------------------------------------|
Bb|--8--8--8--8-5-----10--10--10--10-7----------------------------------------|

Post Chorus: Distorted
 C|---------------------------------------------------------------------------|
 G|---------------------------------------------------------------------------|
Eb|--7--------------5---------------------------------------------------------|
Bb|--x--------------x---------------------------------------------------------|
 F|--5----0----3----3----0--0--0--0-0----0-0--0----0-0--0---------------------|
Bb|-------0----3---------0--0--0--0-0----0-0--0----0-0--0-3h6p3p0-------------|

Post Chorus: Distorted
 C|---------------------------------------------------------------------------|
 G|---------------------------------------------------------------------------|
Eb|--7---------8--------------------------------------------------------------|
Bb|--x---------x----------------------------------------------------0---------|
 F|--5----0----6----------------------------------------------------0---------|
Bb|-------0---------6p5-0h3-0---5h6-5p0-3p0------5h6-5p0-3p0-3h5----0---------|

Verse 2: Distorted (Palm Muted)
 C|---------------------------------------------------------------------------|
 G|---------------------------------------------------------------------------|
Eb|---------------------------------------------------------------------------|
Bb|---------------------------------------------------------------------------|
 F|--5-5-5-5-5-5-5-5-5-5-5-5-5-5-5-5-5-5-5-5-5-5-5-5-5-5-5-5-5-5-5-5----------|
Bb|---------------------------------------------------------------------------|

 C|---------------------------------------------------------------------------|
 G|---------------------------------------------------------------------------|
Eb|---------------------------------------------------------------------------|
Bb|---------------------------------------------------------------------------|
 F|--8-8-8-8-8-8-8-8-8-8-8-8-8-8-8-8-3-3-3-3-3-3-3-3-3-3-3-3-3-3-3-3----------|
Bb|---------------------------------------------------------------------------|

Verse 2(Variation): Distorted (Palm Muted)
 C|---------------------------------------------------------------------------|
 G|---------------------------------------------------------------------------|
Eb|---------------------------------------------------------------------------|
Bb|---------------------------------------------------------------------------|
 F|--5-5-5-5-5-5-5-5-5-5-5-5-5-5-5-5-8-8-8-8-8-8-8-8-8-8-8-8-8-8-8-8----------|
Bb|---------------------------------------------------------------------------|

 C|---------------------------------------------------------------------------|
 G|---------------------------------------------------------------------------|
Eb|---------------------------------------------------------------------------|
Bb|---------------------------------------------------------------------------|
 F|--3-3-3-3-3-3-3-3-3-3-3-3-3-3-3-3-0-0-0-0-0-0-0-0-0-0-0-0-0-0-0-0----------|
Bb|---------------------------------------------------------------------------|

Pre Chorus: Distorted
 C|---------------------------------------------------------------------------|
 G|---------------------------------------------------------------------------|
Eb|---------------------------------------------------------------------------|
Bb|--8--8--8--8-8----10--10--10-10-7----8--8--8--8-8----10--10--10--10---10---|
 F|--8--8--8--8-8----10--10--10-10-7----8--8--8--8-8----10--10--10--10---10---|
Bb|--8--8--8--8-8----10--10--10-10-7----8--8--8--8-8----10--10--10--10---10---|

Chorus: Distorted
 C|---------------------------------------------------------------------------|
 G|---------------------------------------------------------------------------|
Eb|---------------------------------------------------------------------------|
Bb|--8--8--8--8-8-----5--5--5--5-5-----0--0--0--0---0-----0--0--0--0---0------|
 F|--8--8--8--8-8-----5--5--5--5-5-----0--0--0--0---0-----0--0--0--0---0------|
Bb|--8--8--8--8-8-----5--5--5--5-5-----0--0--0--0---0-----0--0--0--0---0------|

Chorus: Distorted
 C|---------------------------------------------------------------------------|
 G|---------------------------------------------------------------------------|
Eb|---------------------------------------------------------------------------|
Bb|--8--8--8--8-8-----5--5--5--5-5-----0--0--0--0---0-----4--4--4--4---4------|
 F|--8--8--8--8-8-----5--5--5--5-5-----0--0--0--0---0-----5--5--5--5---5------|
Bb|--8--8--8--8-8-----5--5--5--5-5-----0--0--0--0---0-----4--4--4--4---4------|

Chorus: Distorted
 C|---------------------------------------------------------------------------|
 G|---------------------------------------------------------------------------|
Eb|---------------------------------------------------------------------------|
Bb|--8--8--8--8-8-----5--5--5--5-5-----0--0--0--0---0-----0--0--0--0---0------|
 F|--8--8--8--8-8-----5--5--5--5-5-----0--0--0--0---0-----0--0--0--0---0------|
Bb|--8--8--8--8-8-----5--5--5--5-5-----0--0--0--0---0-----0--0--0--0---0------|

Chorus: Distorted
 C|---------------------------------------------------------------------------|
 G|---------------------------------------------------------------------------|
Eb|---------------------------------------------------------------------------|
Bb|--8--8--8--8-5-----10--10--10--10-7----------------------------------------|
 F|--8--8--8--8-5-----10--10--10--10-7----------------------------------------|
Bb|--8--8--8--8-5-----10--10--10--10-7----------------------------------------|

Bridge: Distorted
 C|---------------------------------------------------------------------------|
 G|---------------------------------------------------------------------------|
Eb|---------------------------------------------------------------------------|
Bb|---------------------------------------------------------------------------|
 F|--------0--0------------0---1--0--0-0----------0--0------------0---0--1--0-|
Bb|--12\---0--0------12\---0---1--0--0-0----12\---0--0------12\---0---0--1--0-|

Bridge: Distorted
 C|---------------------------------------------------------------------------|
 G|---------------------------------------------------------------------------|
Eb|---------------------------------------------------------------------------|
Bb|---------------------------------------------------------------------------|
 F|--0--------------------------------0---------------------------------------|
Bb|--0--12-13-12--0--8-11-8----7-8----0--12-13-12--0--8-11-8----7-4-----------|

Bridge: Distorted
 C|---------------------------------------------------------------------------|
 G|---------------------------------------------------------------------------|
Eb|---------------------------------------------------------------------------|
Bb|---------------------------------------------------------------------------|
 F|--0--------------------------------0---------------------------------------|
Bb|--0--12-13-12--0--8-11-8----7-8----0--12-13-12--0--11-8-0-8-5-0-7-3--------|

Chorus: Distorted
 C|---------------------------------------------------------------------------|
 G|---------------------------------------------------------------------------|
Eb|---------------------------------------------------------------------------|
Bb|--8--8--8--8-8-----5--5--5--5-5-----0--0--0--0---0-----0--0--0--0---0------|
 F|--8--8--8--8-8-----5--5--5--5-5-----0--0--0--0---0-----0--0--0--0---0------|
Bb|--8--8--8--8-8-----5--5--5--5-5-----0--0--0--0---0-----0--0--0--0---0------|

Chorus: Distorted
 C|---------------------------------------------------------------------------|
 G|---------------------------------------------------------------------------|
Eb|---------------------------------------------------------------------------|
Bb|--8--8--8--8-8-----5--5--5--5-5-----0--0--0--0---0-----4--4--4--4---4------|
 F|--8--8--8--8-8-----5--5--5--5-5-----0--0--0--0---0-----5--5--5--5---5------|
Bb|--8--8--8--8-8-----5--5--5--5-5-----0--0--0--0---0-----4--4--4--4---4------|

Chorus: Distorted
 C|---------------------------------------------------------------------------|
 G|---------------------------------------------------------------------------|
Eb|---------------------------------------------------------------------------|
Bb|--8--8--8--8-8-----5--5--5--5-5-----0--0--0--0---0-----0--0--0--0---0------|
 F|--8--8--8--8-8-----5--5--5--5-5-----0--0--0--0---0-----0--0--0--0---0------|
Bb|--8--8--8--8-8-----5--5--5--5-5-----0--0--0--0---0-----0--0--0--0---0------|

Chorus: Distorted
 C|---------------------------------------------------------------------------|
 G|---------------------------------------------------------------------------|
Eb|---------------------------------------------------------------------------|
Bb|--8--8--8--8-5-----10--10--10--10-7----------------------------------------|
 F|--8--8--8--8-5-----10--10--10--10-7----------------------------------------|
Bb|--8--8--8--8-5-----10--10--10--10-7----------------------------------------|

Outro: Distorted
 C|---------------------------------------------------------------------------|
 G|---------------------------------------------------------------------------|
Eb|---------------------------------------------------------------------------|
Bb|---------------------------------------------------------------------------|
 F|--0--------------------------------0---------------------------11-11-------|
Bb|--0--12-13-12--0--8-11-8----7-8----0--12-13-12--0--8-11-8----7-------------|

Finished!

If there are any mistakes I will fix them soon. I tabbed this without a guitar
with me, as I was at work. This tab is from my memory. Happy Jamming Friends.
Tap to rate this tab
 
# A B C D E F G H I J K L M N O P Q R S T U V W X Y Z