Song name
# A B C D E F G H I J K L M N O P Q R S T U V W X Y Z

Red - Lie To Me tab

Song: Lie To Me
Album: Until We Have Faces
Artist: RED

Tuning: Drop A (BF#DAEA)

Hey all! There's only a couple of parts I'm unsure of in this. The first is the 7p5 in
the second bar of the intro riff, I'm not %100 on that. The second is the slides in the
first pre-chorus, I hear them but I'm not sure whether they are correct. Anyways, if you 
like this check out my other tabs :D

 Intro:
  GUITAR 1 (0:21)
 B|--------------------------|---------------------------|
F#|--------------------------|---------------------------|
 D|--------------------------|---------------------------|
 A|--------------------------|---------------------------|
 E|--------------------------|---------------------------|
 A|--0-0-0--0--0--0-0--0-0-1-|--0-0-0--0--0--0-0--0-0-1--|

 B|--------------------------|---------------------------|
F#|--------------------------|---------------------------|
 D|--------------------------|---------------------------|
 A|--------------------------|---------------------------|
 E|--------------------------|---------------------------|
 A|--0-0-0--0--0--0-0--0-0-1-|--0-0-0--0--0--0-0--0-0-1--|

  GUITAR 2 (swells in at roughly 0:29)
 B|--------------------------------------|-------------------------------------|
F#|--------------------------------------|-------------------------------------|
 D|--------------------------------------|-------------------------------------|
 A|--------------------------------------|-------------------------------------|
 E|----9-------------10h12---9h10--------|---9-------------10h12---------------|
 A|--0---0-0-10h12-0-------0------0-0-1s-|-0---0-0-10h12-0-------0-7p5-0-0-1s--|

  GUITAR 1 (0:33)
 B|---------------------------|---------------------------|
F#|---------------------------|---------------------------|
 D|---------------------------|---------------------------|
 A|---------------------------|---------------------------|
 E|---------------------------|---------------------------|
 A|--0-0-0--0--0--000--0-0-1s-|-0-0-0--0--0--000--0-0-1s--|

 B|---------------------------|---------------------------|
F#|---------------------------|---------------------------|
 D|---------------------------|---------------------------|
 A|---------------------------|---------------------------|
 E|---------------------------|---------------------------|
 A|--0-0-0--0--0--000--0-0-1s-|-0-0-0--0--0--000--0-0-1s--|

  GUITAR 2 (0:33)
 B|--------------------------------------|-------------------------------------|
F#|--------------------------------------|-------------------------------------|
 D|--------------------------------------|-------------------------------------|
 A|--------------------------------------|-------------------------------------|
 E|----9-------------10h12---9h10--------|---9-------------10h12---------------|
 A|--0---0-0-10h12-0-------0------0-0-1s-|-0---0-0-10h12-0-------0-7p5-0-0-1s--|

 B|--------------------------------------|-------------------------------------|
F#|--------------------------------------|-------------------------------------|
 D|--------------------------------------|-------------------------------------|
 A|--------------------------------------|-------------------------------------|
 E|----9-------------10h12---9h10--------|---9-------------10h12---------------|
 A|--0---0-0-10h12-0-------0------0-0-1s-|-0---0-0-10h12-0-------0-7p5-0-0-1s--|

  Verse:
  GUITAR 1
 B|-----|
F#|-----|
 D|-----|
 A|--5--|
 E|--5--|
 A|--5--|

 Pre-chorus:
 B|-------------------------------------|-------------------------------|
F#|--------11-11-11-11------11-11-11-11-|-------8-8-8-8-----------------|
 D|--------x--x--x--x-------x--x--x--x--|-------x-x-x-x-----------------|
 A|--------8--8--8--8-------8--8--8--8--|-------5-5-5-5-----7------5s7--|
 E|-------------------------------------|-------------------------------|
 A|--5-5-5--------------5-5-------------|-1-1-1---------3-3----1s3------|

  Chorus:
 B|------------------|------------------|
F#|------------------|------------------|
 D|------------------|---------5-5-5-5--|
 A|--5-5-5-5-8-8-8-8-|-3-3-3-3-5-5-5-5--|
 E|--5-5-5-5-8-8-8-8-|-3-3-3-3-3-3-3-3--|
 A|--5-5-5-5-8-8-8-8-|-3-3-3-3----------|

 B|------------------|------------------|
F#|------------------|------------------|
 D|------------------|------------------|
 A|--5-5-5-5-8-8-8-8-|-3-3-3-3-3-3-3-3--|
 E|--5-5-5-5-8-8-8-8-|-3-3-3-3-3-3-3-3--|
 A|--5-5-5-5-8-8-8-8-|-3-3-3-3-3-3-3-3--|

 Post-chorus:
  GUITAR 1
 B|---------------------------|---------------------------|
F#|---------------------------|---------------------------|
 D|---------------------------|---------------------------|
 A|---------------------------|---------------------------|
 E|---------------------------|---------------------------|
 A|--0-0-0--0--0--000--0-0-1s-|-0-0-0--0--0--000--0-0-1s--|

  GUITAR 2
 B|--------------------------------------|-------------------------------------|
F#|--------------------------------------|-------------------------------------|
 D|--------------------------------------|-------------------------------------|
 A|--------------------------------------|-------------------------------------|
 E|----9-------------10h12---9h10--------|---9-------------10h12---------------|
 A|--0---0-0-10h12-0-------0------0-0-1s-|-0---0-0-10h12-0-------0-7p5-0-0-1s--|

  Verse:
  GUITAR 1
 B|-----|
F#|-----|
 D|-----|
 A|--5--|
 E|--5--|
 A|--5--|

  Pre-chorus:
 B|-------------------------------------|-------------------------------|
F#|--------11-11-11-11------11-11-11-11-|-------8-8-8-8-----------------|
 D|--------x--x--x--x-------x--x--x--x--|-------x-x-x-x-----------------|
 A|--------8--8--8--8-------8--8--8--8--|-------5-5-5-5-----------------|
 E|-------------------------------------|--------------------------3h5--|
 A|--5-5-5--------------5-5-------------|-1-1-1---------3-3-3--3h5------|

  Chorus:
 B|------------------|------------------|
F#|------------------|------------------|
 D|------------------|---------5-5-5-5--|
 A|--5-5-5-5-8-8-8-8-|-3-3-3-3-5-5-5-5--|
 E|--5-5-5-5-8-8-8-8-|-3-3-3-3-3-3-3-3--|
 A|--5-5-5-5-8-8-8-8-|-3-3-3-3----------|

B|------------------|---------------------|
F#|------------------|--------------------|
 D|------------------|--------------------|
 A|--5-5-5-5-8-8-8-8-|-3-3-3-3-3-3-3-3----|
 E|--5-5-5-5-8-8-8-8-|-3-3-3-3-3-3-3-3----|
 A|--5-5-5-5-8-8-8-8-|-3-3-3-3-3-3-3-3----|

 B|------------------|------------------|
F#|------------------|------------------|
 D|------------------|---------5-5-5-5--|
 A|--5-5-5-5-8-8-8-8-|-3-3-3-3-5-5-5-5--|
 E|--5-5-5-5-8-8-8-8-|-3-3-3-3-3-3-3-3--|
 A|--5-5-5-5-8-8-8-8-|-3-3-3-3----------|

 B|------------------|------------------|
F#|------------------|------------------|
 D|------------------|------------------|
 A|--5-5-5-5-8-8-8-8-|-3-3-3-3-3-3-3-3--|
 E|--5-5-5-5-8-8-8-8-|-3-3-3-3-3-3-3-3--|
 A|--5-5-5-5-8-8-8-8-|-3-3-3-3-3-3-3-3--|

  Bridge:
 B|------------------|---------------------------|-----------------|----------------------|
F#|------------------|---------------------------|-----------------|----------------------|
 D|------------------|---------------------------|-----------------|----------------------|
 A|--1-1-1-1-5-5-5-5-|---------------------------|-1-1-1-1-5-5-5-5-|-4-4-4-4-0-0----------|
 E|--1-1-1-1-5-5-5-5-|-----------------------3h5-|-1-1-1-1-5-5-5-5-|-5-5-5-5-0-0-----3h5--|
 A|--1-1-1-1-5-5-5-5-|-0h1-0-3-0--1p0-3-0-3h5----|-1-1-1-1-5-5-5-5-|-4-4-4-4-0-0-3h5------|

 B|------------------|---------------------------|-----------------|------------------|
F#|------------------|---------------------------|-----------------|------------------|
 D|------------------|---------------------------|-----------------|------------------|
 A|--1-1-1-1-5-5-5-5-|---------------------------|-1-1-1-1-1-1-1-1-|-3-3-3-3----------|
 E|--1-1-1-1-5-5-5-5-|-----------------------3h5-|-1-1-1-1-1-1-1-1-|-3-3-3-3-----3h5--|
 A|--1-1-1-1-5-5-5-5-|-0h1-0-3-0--1p0-3-0-3h5----|-1-1-1-1-1-1-1-1-|-3-3-3-3-3h5------|

Quiet chorus, then

Chorus:
 B|------------------|------------------|
F#|------------------|------------------|
 D|------------------|---------5-5-5-5--|
 A|--5-5-5-5-8-8-8-8-|-3-3-3-3-5-5-5-5--|
 E|--5-5-5-5-8-8-8-8-|-3-3-3-3-3-3-3-3--|
 A|--5-5-5-5-8-8-8-8-|-3-3-3-3----------|

 B|------------------|------------------|
F#|------------------|------------------|
 D|------------------|------------------|
 A|--5-5-5-5-8-8-8-8-|-3-3-3-3-3-3-3-3--|
 E|--5-5-5-5-8-8-8-8-|-3-3-3-3-3-3-3-3--|
 A|--5-5-5-5-8-8-8-8-|-3-3-3-3-3-3-3-3--|

 B|------------------|------------------|
F#|------------------|------------------|
 D|------------------|---------5-5-5-5--|
 A|--5-5-5-5-8-8-8-8-|-3-3-3-3-5-5-5-5--|
 E|--5-5-5-5-8-8-8-8-|-3-3-3-3-3-3-3-3--|
 A|--5-5-5-5-8-8-8-8-|-3-3-3-3----------|

 B|------------------|------------------|
F#|------------------|------------------|
 D|------------------|------------------|
 A|--5-5-5-5-8-8-8-8-|-3-3-3-3-3-3-3-3--|
 E|--5-5-5-5-8-8-8-8-|-3-3-3-3-3-3-3-3--|
 A|--5-5-5-5-8-8-8-8-|-3-3-3-3-3-3-3-3--|

 B|------------------|------------------|
F#|------------------|------------------|
 D|------------------|---------5-5-5-5--|
 A|--5-5-5-5-8-8-8-8-|-3-3-3-3-5-5-5-5--|
 E|--5-5-5-5-8-8-8-8-|-3-3-3-3-3-3-3-3--|
 A|--5-5-5-5-8-8-8-8-|-3-3-3-3----------|

 B|------------------|------------------|
F#|------------------|------------------|
 D|------------------|------------------|
 A|--5-5-5-5-8-8-8-8-|-3-3-3-3-3-3-3-3--|
 E|--5-5-5-5-8-8-8-8-|-3-3-3-3-3-3-3-3--|
 A|--5-5-5-5-8-8-8-8-|-3-3-3-3-3-3-3-3--|

GUITAR 1 (0:33)
 B|---------------------------|---------------------------|
F#|---------------------------|---------------------------|
 D|---------------------------|---------------------------|
 A|---------------------------|---------------------------|
 E|---------------------------|---------------------------|
 A|--0-0-0--0--0--000--0-0-1s-|-0-0-0--0--0--000--0-0-1s--|

 B|---------------------------|----------------------------|
F#|---------------------------|----------------------------|
 D|---------------------------|----------------------------|
 A|---------------------------|----------------------------|
 E|---------------------------|----------------------------|
 A|--0-0-0--0--0--000--0-0-1s-|-0-0-0--0--0--000--0-0-0h1--|

  GUITAR 2 (0:33)
 B|--------------------------------------|-------------------------------------|
F#|--------------------------------------|-------------------------------------|
 D|--------------------------------------|-------------------------------------|
 A|--------------------------------------|-------------------------------------|
 E|----9-------------10h12---9h10--------|---9-------------10h12---------------|
 A|--0---0-0-10h12-0-------0------0-0-1s-|-0---0-0-10h12-0-------0-7p5-0-0-1s--|

 B|--------------------------------------|--------------------------------------|
F#|--------------------------------------|--------------------------------------|
 D|--------------------------------------|--------------------------------------|
 A|--------------------------------------|--------------------------------------|
 E|----9-------------10h12---9h10--------|---9-------------10h12----------------|
 A|--0---0-0-10h12-0-------0------0-0-1s-|-0---0-0-10h12-0-------0-7p5-0-0-0h1--|
Tap to rate this tab
 
# A B C D E F G H I J K L M N O P Q R S T U V W X Y Z