Red - Faceless tab

Song: Faceless
Band: RED
Album: Until We Have Faces
Drop B (B,F#,B, E,G#,C#)
Tabbed by JRedDisciple

A few notes - the second verse, second half is a bit weird, so it
may not be 100% perfect but its pretty close, also note that
in both verses the 0 s are not written to the rhythm so there may
be more or less 0 s than there are here....
Enjoy! Please rate and comment; tell me how I'm doing!

Intro (one time with background fuzz distortion)
C#------------------------------------------------------|
G#------------------------------------------------------|
E ------------------------------------------------------|
B ------------------------------------------------------|
F#------5-------------------------5---------------------|
B-0-0-0--0-7h8-0-5h7-3-0-3--0-0-0--0-7h8-7-0-10-8-7-8---|

Loud Intro
C#-------------------------------------------------------|
G#-------------------------------------------------------|
E -------------------------------------------------------|
B -------------------------------------------------------|
F#------5--------------------------5---------------------|
B-0-0-0--0-7h8-0-5h7-3-0-3---0-0-0--0-7h8-7-0-10-8-7-8---|

C#----------------------------------------------------------------------------|
G#----------------------------------------------------------------------------|
E ----------------------------------------------------------------------------|
B -----------------------------8--5-------------------------------------------|
F#---------5-------------------8--5-------------------------------------------|
B----0-0-0--0-7h8-5h7-3-0-3----8--5-------------------------------------------|

Verse 1  2x (1rst time in background fuzz, second full distortion)
C#--------------------------------------------------------------------------|
G#--------------------------------------------------------------------------|
E --------------------------------------------------------------------------|
B --------------------------------------------------------------------8--5--|
F#--------------------------------------------------------------------8--5--|
B-0-0-0-0-0-0-0-8p7h8-10-0-0-0-0-0-0-0-0-8p7h8-10-12\0-0-0-0-8p7h8-10-8--5--|
(A voice screaming from within, begging just to feel again...)

Pre-chorus
C#-------------------------------|
G#-------------------------------|
E -------------------------------|
B ---8--5--8---10----------------|
F#---8--5--8---10----------------|
B----8--5--8---10----------------|
(I abandonned this love, and laid it to rest...)

Chorus
C#----------------------------------|
G#----------------------------------|
E ---------5------------------------|
B ---0--3--5--5---------------------|     2x
F#---0--3--3--5---------------------|
B ---0--3-----5---------------------|
(I'm not , I'm not myself...)

Intro again

Verse 2
C#---------------------------------------------------------------|
G#---------------------------------------------------------------|
E ---------------------------------------------------------------|
B ---------------------------------------------------------------|
F#---------------------------------------------------------------|
B --0-0-0-0-0-0-0-8p7h8-10--0-0-0-0-0-0-8p7h8-10-12\-------------|

C#--------------------------------------------------|
G#--------------------------------------------------|
E --------------------------------------------------|
B --------------------------------8--5--------------|
F#--------------------------------8--5--------------|
B ----0-0-0-0-0-0-0-8p8\7h8-10----8--5--------------|

C#--------------------------------------------------------------------------|
G#--------------------------------------------------------------------------|
E --------------------------------------------------------------------------|
B --------------------------------------------------------------------------|
F#-----------------------5----------------------------------8p7-0-7p5-0-3-5-|
B--0-0-0----0---0--0-0-0---0-8p7h8-10-12\-0-0-8p7h8-10-8-7------------------|

Post-Chorus
C#----------------------------------|
G#----------------------------------|
E ----------------------------------|
B ----8---5---8----5-----8----10----|
F#----8---5---8----5-----8----10----|
B-----8---5---8----5-----8----10----|

Bridge
C#-----------------------------------------------------------------|
G#-----------------------------------------------------------------|
E -----------------------------------------------------------------|     2x
B -----------------------------------------------------------------|
F#----------5------5-4-0-4-3-0-1-0---------5------5-4-0-4-3-1-3----|
B-0-3-0-5-0---7-0------------------0-3-0-5----7-0------------------|
(Until we have FACES!!!) (Faceless!!!)
Chorus

Outro
		3x
C#-----------------------------|------------------------------|
G#-----------------------------|------------------------------|
E -----------------------------|------------------------------|
B -----------------------------|------------------------------|
F#-----------------------------|---------------54-4-3---------|
B-----0-3-0-5-0-0-0-8-7-8-10---|--0-3-0-5-0-0----------0-3-0--|

Finish
Tap to rate this tab
 
# A B C D E F G H I J K L M N O P Q R S T U V W X Y Z