Red - Faceless tab

Band: Red
Song: Faceless
Album: Until We Have Faces
Tuning: Drop B: B F# B E G# C#

Key: /   Slide Up     ~   Hold out note     p   pull off     \   Slide Down

Amazing song by an amazing band.  Hopefully this tab helps you out.  
Keep rocking and God Bless!

 Intro 1. This is before it gets heavier.
|----------------------------------------------------------|
|----------------------------------------------------------|
|-------7---------------------------7----------------------|
|----------------------------------------------------------|
|-0--0--5-0--8--5-0-7--0-3/5-0-0-0--5-0--8--7-0-10--0-8/11-|
|-0--0----0--8--5-0-7--0-3/5-0-0-0----0--8--7-0-10--0-8/11-|
                                                        
 Intro 2.                                                  x2
|-----------------------------------------------------------|
|-----------------------------------------------------------|
|--------7---------------------------7----------------------|
|-0-0-0----0--8--5-0-7--0-3/5-0-0-0----0--8--7-0-10--0-8/11-|
|-0-0-0--5-0--8--5-0-7--0-3/5-0-0-0--5-0--8--7-0-10--0-8/11-|
|-0-0-0----0--8--5-0-7--0-3/5-0-0-0----0--8--7-0-10--0-8/11-|

|-----------------------------------|
|-----------------------------------|
|-----------------------------------|
|-8--8-8-8-8-8-8-5--5-5-5-5-5-5-0~~-|Hold this last note into Verse 1
|-8--8-8-8-8-8-8-5--5-5-5-5-5-5-0~~-|
|-8--8-8-8-8-8-8-5--5-5-5-5-5-5-0~~-|

Verse 1
|--------------------------------------------------------------------|
|--------------------------------------------------------------------|
|--------------------------------------------------------------------|
|--------------------------------------------------------------------|
|--------------------------------------------------------------------|
|-0--0--0-0--8p0-7-10-0--0-0--0--0--0-0--8p0-7-10-12\-0-0--0--0--0-0-|

|----------------------------------------------------------------|
|----------------------------------------------------------------|
|----------------------------------------------------------------|
|----------8---8-8-8-5---5--5-5--5-5-----------------------------|
|----------8---8-8-8-5---5--5-5--5-5-0--0-0--0--0--0-0-----------|
|-8p0-7-10-8---8-8-8-5---5--5-5--5-5-0--0-0--0--0--0-0--8p0-7-10-|

|---------------------------------------------------------|
|---------------------------------------------------------|
|---------------------------------------------------------|
|---------------------------------------------------------|
|-0--0-0--0--0--0-0---------------0-0--0--0--0-0----------|
|-0--0-0--0--0--0-0--8p0-7-10-12\-0-0--0--0--0-0-8p0-7-10-|

|---------------------------|
|---------------------------|
|---------------------------|
|-8---8-8-8-5---5--5-5--5-5-|
|-8---8-8-8-5---5--5-5--5-5-|
|-8---8-8-8-5---5--5-5--5-5-|

Pre-Chorus
|----------------------------------------------------------------------|
|----------------------------------------------------------------------|
|----------------------------------------------------------------------|
|-8---8-8-8--8--8-8--8-8-5---5-5-5--5--5-5--5-5-8---8-8-8--8--8-8--8-8-|
|-8---8-8-8--8--8-8--8-8-5---5-5-5--5--5-5--5-5-8---8-8-8--8--8-8--8-8-|
|-8---8-8-8--8--8-8--8-8-5---5-5-5--5--5-5--5-5-8---8-8-8--8--8-8--8-8-|

|---------------------------------|
|---------------------------------|
|---------------------------------|
|-10---10-10-10--10--10-10--10-10-|
|-10---10-10-10--10--10-10--10-10-|
|-10---10-10-10--10--10-10--10-10-|

Chorus 1 Play all this x2
|-----------------------------------------------------------------|
|-----------------------------------------------------------------|
|-----------------------------------------------------------------|
|-3-3-3-3-3-3-3-3-3-3-3-3-3-3-3-3-7-7-7-7-7-7-7-7-7-7-7-7-7-7-7-7-|
|-0-0-0-0-0-0-0-0-0-0-0-0-0-0-0-0-3-3-3-3-3-3-3-3-3-3-3-3-3-3-3-3-|
|-0-0-0-0-0-0-0-0-0-0-0-0-0-0-0-0-3-3-3-3-3-3-3-3-3-3-3-3-3-3-3-3-|

|-----------------------------------------------------------------|
|-----------------------------------------------------------------|
|-5-5-5-5-5-5-5-5-5-5-5-5-5-5-5-5---------------------------------|
|-5-5-5-5-5-5-5-5-5-5-5-5-5-5-5-5-5-5-5-5-5-5-8-8-8-8-8-8-8-8-8-8-|
|-3-3-3-3-3-3-3-3-3-3-3-3-3-3-3-3-5-5-5-5-5-5-5-5-5-5-5-5-5-5-5-5-|
|---------------------------------5-5-5-5-5-5-5-5-5-5-5-5-5-5-5-5-|

Now go back to intro 2. and play it once

Verse 2
|--------------------------------------------------------------------|
|--------------------------------------------------------------------|
|--------------------------------------------------------------------|
|--------------------------------------------------------------------|
|--------------------------------------------------------------------|
|-0--0--0-0--8p0-7-10-0--0-0--0--0--0-0--8p0-7-10-12\-0-0--0--0--0-0-|

|----------------------------------------------------------------|
|----------------------------------------------------------------|
|----------------------------------------------------------------|
|----------8---8-8-8-5---5--5-5--5-5-----------------------------|
|----------8---8-8-8-5---5--5-5--5-5-----------------------------|
|-8p0-7-10-8---8-8-8-5---5--5-5--5-5-----------------------------|

|----------------------------------------------------------------|
|----------------------------------------------------------------|
|-----------------------------------7----------------------------|
|----------------------------------------------------------------|
|-0--0-0--0-----0---0---0--0-0--0-0-5--0-0-----------------------|
|-0--0-0--0-----0---0---0--0-0--0-0----0-0--8p0-7-10-12\---------|

This part's fast and tricky but REAllY fun once you get it down.
|----------------------------------------------------------------|
|----------------------------------------------------------------|
|----------------------------------------------------------------|
|------------------------------8---8-8-8-5---5--5-5--5-5---------|
|-------5-----8-7----7\5-------8---8-8-8-5---5--5-5--5-5---------|
|-0-5-0---7-0-----10-----8-7-8-8---8-8-8-5---5--5-5--5-5---------|

Pre-Chorus 2 same as the first

Chorus 2 same as the first

Bridge
|------------------------------------------------------------------|
|------------------------------------------------------------------|
|-7-7-7-7-7-7-7-7-7-7-7-7-7-7-7-7-10101010101010101010101010101010-|
|-7-7-7-7-7-7-7-7-7-7-7-7-7-7-7-7-10101010101010101010101010101010-|
|-5-5-5-5-5-5-5-5-5-5-5-5-5-5-5-5-8-8-8-8-8-8-8-8-8-8-8-8-8-8-8-8--|
|------------------------------------------------------------------|
 
|---------------------------------------------------------------------------|
|---------------------------------------------------------------------------|
|-9-9-9-9-9-9---------------------------------------------------------------|
|-9-9-9-9-9-9-10-10-10-10-10-10-10-10-10-10-5-5-5-5-5-5-5-5-5-5-5-5-5-5-5-5-|
|-7-7-7-7-7-7-10-10-10-10-10-10-10-10-10-10-5-5-5-5-5-5-5-5-5-5-5-5-5-5-5-5-|
|-------------10-10-10-10-10-10-10-10-10-10-5-5-5-5-5-5-5-5-5-5-5-5-5-5-5-5-|
          
Long Pause
|----|-----------------------|--------------------------------------|
|----|-----------------------|--------------------------------------|
|----|-----------------------|--------------------------------------|
|----|-----------------------|--------------------------------------|
|----|-----------------------|-----------5--------------------------|
|----|-12-11-0-11-10-0-10-13-|-0-3-0-5-0---7-0-12-11-0-11-10-0-8-10-|
                           Play above then below and above and below again
                             |---------------------------------------|
                             |---------------------------------------|
                             |---------------------------------------|
                             |---------------------------------------|
                             |-----------5---------------------------|
                             |-0-3-0-5-0---7-0-12-11-0-11-10-0-10-13-|

Chorus 3 same as first 2

Outro
|-----------------------------------------------------------|
|-----------------------------------------------------------|
|-----------------------------------------------------------|
|-0-3-0-5--0--0--0-0-----------0-3-0-5--0--0--0-0-----------|
|-0-3-0-5--0--0--0-0--8-0-7-10-0-3-0-5--0--0--0-0--8-0-7-11-|
|-0-3-0-5--0--0--0-0--8-0-7-10-0-3-0-5--0--0--0-0--8-0-7-11-|

|------------------------------------------------------------------|
|------------------------------------------------------------------|
|------------------------------------------------------------------|
|-0-3-0-5--0--0--0-0-----------0-3-0-5--0--0-----------------------|
|-0-3-0-5--0--0--0-0--8-0-7-10-0-3-0-5--0--0-12-11-0-11-10-0-10-13-|
|-0-3-0-5--0--0--0-0--8-0-7-10-0-3-0-5--0--0-12-11-0-11-10-0-10-13-|

That's it! Please rate, comment, and let me know if you see any mistakes!
Tap to rate this tab
 
# A B C D E F G H I J K L M N O P Q R S T U V W X Y Z