Red - Take It All Away tab

Ok so this song is fairly simple, I'll show you how i play it at least.... i play 
the piano portion on the intro, pre-verse, and build up towards the end.

Tuning is, low to high, A#FA#D#GC


Intro
C |---------------------------------------------------------------------------|
G |----------------------------------------------7----------------------------|
D#|----------11-----------------9----------6-7-6-7-5-5-5-5--------------------|
A#|--11-12-9-9--9-9-9-9-9--11-7-7-7-7-7-7--5-5-5-5-5-5-5-5--11-12-0-12-11-0-0-|
F |--9--9--9-9--9-9-9-9-7--7--7-7-7-7-7-7--5-5-5-5-5-5-5-5--0--0--0-0--0--0-0-|
A#|--9--9--9-9--9-9-9-9-7--7--7-7-7-7-7-7--5-5-5-5-5-5-5-5--0--0--0-0--0--0-0-|

Verse- Play all of it 2x
|-----------------|              |-----------------|
|-----------------|              |-----------------|
|-----------------| play 3x then |-----------------|
|-9-9-9-9-9-9-9-9-|              |-0-0-0-0-2-2-2-2-|
|-9-9-9-9-9-9-9-9-|              |-0-0-0-0-2-2-2-2-|
|-9-9-9-9-9-9-9-9-|              |-0-0-0-0-2-2-2-2-|

on second playthrough, play this instead
|-----------|
|-----------|
|-----------|
|-0-0-0-0-2-|
|-0-0-0-0-2-|
|-0-0-0-0-2-| let it ring.

Chorus
|----------------------------------------|
|--------------------------------5-3-2---|
|--------------------------------x-x-x-4-|
|-9-9-11-12-0-0--14-11-7-9-11-12-2-2-2-2-|
|-9-9-9--9--0-12-0--0--7-7-7--7--2-2-2-2-|
|-9-9-9--9--0-0--0--0--7-7-7--7--2-2-2-2-|

Same Intro again, then Verse

On Verse second playthrough, play this instead first instead, then the regular riffs
|-------------------------| and then |---------2-2-2-2-|
|-------------------------|          |---------5-5-5-5-|
|-------------11-11-11-11-|          |---------4-4-4-4-|
|-13-13-13-14-9--9--9--9--|          |-0-0-0-0-2-2-2-2-|
|-9--10-9--9--9--9--9--9--|          |-0-0-0-0-2-2-2-2-|
|-9--9--9--9--9--9--9--9--|          |-0-0-0-0-2-2-2-2-|

repeat chorus, intro riff, then this

|--------------------------------------------------------------------|
|--------------------------------------------------------------------|
|---11--11--11--11--11--11--11--11--9---9---9---9----------9--11---9-|
|-12--12--12--12--11--11--11--11--11--11--11--11---9-12--9---------9-|
|-14--14--14--14--13--13--13--13--12--12--12--12--11----11--------11-|
|--------------------------------------------------------------------|

Breakdown intro
|-------------------------------------------------------|
|-------------------------------------------------------|
|---11-12-11--------11-12-11---9-11-12-11---------------|  repeat til 
|-9----------9--0-9----------9-------------9--11--11-12-|  major breakdown
|-9-------------0------------7------------10--12--------|
|-9-------------0------------9--------------------------|

Underneath these chords, if you prefer not to play them, just play
|---------------------------------|
|---------------------------------|
|---------------------------------|
|-9-9-9-9-0-0-0-0-2-2-2-2-5-5-7-7-|
|-9-9-9-9-0-0-0-0-2-2-2-2-5-5-7-7-|
|-9-9-9-9-0-0-0-0-2-2-2-2-5-5-7-7-|

This is how i play the breakdown, i'll list the way i do it and the way i've seen it done live...

my way
|-----------------------------------------------------------------|
|-----------------------------------------------------------------|
|-----------------------------------------------------------------|
|-9-9-9-9-9-9-9-9-7-7-7-7-7-7-7-7-7-7-7-7-7-7-7-7-2-2-2-2-2-2-2-2-|
|-9-9-9-9-9-9-9-9-4-4-4-4-4-4-4-4-7-7-7-7-7-7-7-7-2-2-2-2-2-2-2-2-|
|-9-9-9-9-9-9-9-9-4-4-4-4-4-4-4-4-7-7-7-7-7-7-7-7-2-2-2-2-2-2-2-2-|

live (this is what it looks like he's doin)
|-----------------------------------------------------------------|
|-----------------------------------------------------------------|
|-4-4-4-4-4-4-4-4-2-2-2-2-2-2-2-2-2-2-2-2-2-2-2-2-----------------|
|-4-4-4-4-4-4-4-4-2-2-2-2-2-2-2-2-2-2-2-2-2-2-2-2-2-2-2-2-2-2-2-2-|
|-2-2-2-2-2-2-2-2-4-4-4-4-4-4-4-4-0-0-0-0-0-0-0-0-2-2-2-2-2-2-2-2-|
|-----------------4-4-4-4-4-4-4-4-----------------2-2-2-2-2-2-2-2-|

Then play the intro to the breakdown again, except its now an outro.

thanks for reading! hope its accurate and ya'll enjoy it.
Tap to rate this tab
 
# A B C D E F G H I J K L M N O P Q R S T U V W X Y Z